Song name
# A B C D E F G H I J K L M N O P Q R S T U V W X Y Z

Used - Tunnel tab

===================================================================

CHORDS

Intro
E|--0----0----0----0----0----0----0--| 
B|--1----1----1----1----1----1----1--| 
G|--2----2----2----2----2----2----2--| 
D|--2----3----2----0----2----3----2--| 
A|--0----0----3----0----0----0----3--| 
D|-----------------------------------| 

Riff 1
E|--0-----0-----0-----0--------------| 
B|--1-----1-----1-----1--------------| 
G|--2-----2-----2-----2--------------| 
D|--2-----3-----2-----0--------------| 
A|--0-----0-----3-----0--------------| 
D|-----------------------------------| 

Bridge
E|--2----3--------| 
B|--3----3--------| 
G|--2----2--------| 
D|--0----3--------| 
A|----------------| 
D|----------------|

Riff 2
E|--0----0--------| 
B|--0----1--------| 
G|--0----2--------| 
D|--5----2--------| 
A|--5----0--------| 
D|--5-------------|

===================================================================

Intro
E|--0----0----0----0----0----0----0--| 
B|--1----1----1----1----1----1----1--| 
G|--2----2----2----2----2----2----2--| 
D|--2----3----2----0----2----3----2--| 
A|--0----0----3----0----0----0----3--| 
D|-----------------------------------| 

(Riff 1)
we set out alone
alone through the tunnel
my eyes can hardly see the other side
no longer cold or feeling troubled
i realize that i am just alive

(Bridge)
so let it shine

(Riff 1)
'cause we are
the light in the tunnel
we are
the living and dying
see how we are
alone in the world
we are
the light in the tunnel,
that's all.

Intro
E|--0----0----0----0----0----0----0--| 
B|--1----1----1----1----1----1----1--| 
G|--2----2----2----2----2----2----2--| 
D|--2----3----2----0----2----3----2--| 
A|--0----0----3----0----0----0----3--| 
D|-----------------------------------| 

(Riff 1)
moving so slow
towards the end of the tunnel
and dont pretend i'll see the other side
and trudge through the mud
and push through the rubble
to realize that i am just alive

(Bridge)
so let it shine

(Riff 1)
'cuase we are
the light in the tunnel
we are
the living and dying
see how we are
alone in the world
we are
the light in the tunnel

(Riff 2)
the world is not leaving us
leave us behind
but we will be leaving this world
yeah, the world is not leaving us
leave us behind
but do we beleive in this world

(Riff 1)
'cause we are
the light in the tunnel
we are the living and dying

(Riff 1)
see how we are
alone in the world
we are
the light in the tunnel,
that's all.
we are
the light in the tunnel,
that's all.
we are
the light in the tunnel,
that's all.

Intro
E|--0----0----0----0----0----0----0--| 
B|--1----1----1----1----1----1----1--| 
G|--2----2----2----2----2----2----2--| 
D|--2----3----2----0----2----3----2--| 
A|--0----0----3----0----0----0----3--| 
D|-----------------------------------| 
Tap to rate this tab
 
# A B C D E F G H I J K L M N O P Q R S T U V W X Y Z