Song name
# A B C D E F G H I J K L M N O P Q R S T U V W X Y Z

Used - Hospital tab

     Hey my name is Camden.  This is only my second tab, but my last one was accepted so 
must be pretty good at this.  So if you could do me a favor look up "Expired In 
in a song search and rate the second version please.  Okay, now let's get started.

Low to high (Dadgbe)

*= palm mute
/= slide


(INTRO)

e---------------------------------|
b---------------------------------|
g---10-10-10-10-10-10-10/12-10/12-|
d----x--x--x--x--x--x--x- x--x----|  x
a----8--8--8--8--8--8--8/10--8/10-|
D---------------------------------|

e---------------------------------|
b---------------------------------|
g---10-10-10-10-10-10-10/12-10/12-|
d----x--x--x--x--x--x--x- x--x----|  x
a----8--8--8--8--8--8--8/10--8/10-|
D---------------------------------|


e-----------------------------------------|
b-----------------------------------------|
g---7-7-7-7-7-7-7/9-7/9--6--6--6-6-6-6-6--|
d---x-x-x-x-x-x-x/x-x x--x--x--x-x-x-x-x--| to open
a---5-5-5-5-5-5-5/7-5/7--4--4--4-4-4-4-4--|
D-----------------------------------------|


(CHORUS)

e-----------------------------------------------------|
b-----------------------------------------------------|
g---3--3--3-3--------------5--5--5-5------------------|
d---3--3--3-3--3--3-3-3-3--5--5--5-5--0--0-0-0-0------|
a---1--1--1-1--3--3-3-3-3--3--3--3-3--0--0-0-0-0--0-0-|
D--------------3--3-3-3-3-------------0--0-0-0-0--0-0-|
                                                  * *

e----------------------------------------------------------|
b----------------------------------------------------------|
g---3--3--3-3--------------5-5-5-5-5-5-5-5-5-5-5-5-5-5-5-5-|
d---3--3--3-3--3--3-3-3-3--5-5-5-5-5-5-5-5-5-5-5-5-5-5-5-5-|
a---1--1--1-1--3--3-3-3-3--3-3-3-3-3-3-3-3-3-3-3-3-3-3-3-3-|
D--------------3--3-3-3-3----------------------------------|


(BREAK)
(0:33-0:43)

(VERSE 2)

e---------------------------------|
b---------------------------------|
g---10-10-10-10-10-10-10/12-10/12-|
d----x--x--x--x--x--x--x- x--x----|  x
a----8--8--8--8--8--8--8/10--8/10-|
D---------------------------------|

e---------------------------------|
b---------------------------------|
g---10-10-10-10-10-10-10/12-10/12-|
d----x--x--x--x--x--x--x- x--x----|  x
a----8--8--8--8--8--8--8/10--8/10-|
D---------------------------------|


(PRE-CHORUS)
(flanger-like pedal effect)

e--------------------|
b--------------------|
g--------------------|
d--------------------|
a---5~--7~--7~--8~~~-|
D---5~--7~--8~--8~~~-|


(BRIDGE)
(0:55- 1:05)

(CHORUS)
e-----------------------------------------------------|
b-----------------------------------------------------|
g---3--3--3-3--------------5--5--5-5------------------|
d---3--3--3-3--3--3-3-3-3--5--5--5-5--0--0-0-0-0------|
a---1--1--1-1--3--3-3-3-3--3--3--3-3--0--0-0-0-0--0-0-|
D--------------3--3-3-3-3-------------0--0-0-0-0--0-0-|
                                                  * *

e----------------------------------------------------------|
b----------------------------------------------------------|
g---3--3--3-3--------------5-5-5-5-5-5-5-5-5-5-5-5-5-5-5-5-|
d---3--3--3-3--3--3-3-3-3--5-5-5-5-5-5-5-5-5-5-5-5-5-5-5-5-|
a---1--1--1-1--3--3-3-3-3--3-3-3-3-3-3-3-3-3-3-3-3-3-3-3-3-|
D--------------3--3-3-3-3----------------------------------|

e-------------------------------------------------|
b-------------------------------------------------|
g---3--3--3-3--------------5--5--5-5--------------|
d---3--3--3-3--3--3-3-3-3--5--5--5-5--0-0-----0-0-|
a---1--1--1-1--3--3-3-3-3--3--3--3-3--0-0-0-0-0-0-|
D--------------3--3-3-3-3-------------0-0-0-0-0-0-|
                                          * *

e----------------------------------------------------------|
b----------------------------------------------------------|
g---3--3--3-3--------------5-5-5-5-5-5-5-5-5-5-5-5-5-5-5-5-|
d---3--3--3-3--3--3-3-3-3--5-5-5-5-5-5-5-5-5-5-5-5-5-5-5-5-|
a---1--1--1-1--3--3-3-3-3--3-3-3-3-3-3-3-3-3-3-3-3-3-3-3-3-|
D--------------3--3-3-3-3----------------------------------|


(BREAKDOWN)

e--------|
b--------|
g--------|
d---0----|~~   (use whammy bar to take down 1/2 a step)
a---0~~~
D---0~~~


e--------------------------------------------------|
b--------------------------------------------------|
g---10--------------10/12--12--12--12--12--12--12--|
d--- x (24-----------------------------------------| times)    x/ x   x   x   x   x   x   x (play 2x)
a----8---------------8/10--10--10--10--10--10--10--|
D--------------------------------------------------|

(pt. 2)
e-----------------------------------------------------------------------------|
b-----------------------------------------------------------------------------|
g-----------10-10-10-10--10-10-10-10-10--10-10-10-10-10-10-10-10-10-10-10-10--|
d---0-0-0-0--x----------------------------------------------------------------|
a---0-0-0-0--8--8--8--8---8--8--8--8--8---8--8--8--8--8--8--8--8--8--8--8--8--|
D---0-0-0-0-------------------------------------------------------------------|
    * * * *


e-----------------------|
b-----------------------|
g----/12-12-12-12-12-12-|
d----/ x  x  x  x  x  x (play pt.2 twice)
a----/10-10-10-10-10-10-|
D-----------------------|


(PLAY 2ND CHORUS)


(OUTRO)

e---------------------------------|
b---------------------------------|
g---10-10-10-10-10-10-10/12-10/12-|
d----x--x--x--x--x--x--x- x--x----|  x
a----8--8--8--8--8--8--8/10--8/10-|
D---------------------------------|

e---------------------------------|
b---------------------------------|
g---10-10-10-10-10-10-10/12-10/12-|
d----x--x--x--x--x--x--x- x--x----|  x
a----8--8--8--8--8--8--8/10--8/10-|
D---------------------------------|

e---------------------------------|
b---------------------------------|
g---10-10-10-10-10-10-10/12-10/12-|
d----x--x--x--x--x--x--x- x--x----|  x
a----8--8--8--8--8--8--8/10--8/10-|
D---------------------------------|

e---------------------------------|
b---------------------------------|
g---10-10-10-10-10-10-10/12-10/12-|
d----x--x--x--x--x--x--x- x--x----|  x
a----8--8--8--8--8--8--8/10--8/10-|
D---------------------------------|

e---------------------------------|
b---------------------------------|
g---10-10-10-10-10-10-10/12-10/12-|
d----x--x--x--x--x--x--x- x--x----|  x
a----8--8--8--8--8--8--8/10--8/10-|
D---------------------------------|


(PLAY THIS AT 2:38 2:40, and 2:47)
e-----
b-----
g-----
d---0~
a---0~
D---0~

That's all thank you.

Send questions and inquiries to Ibanez061@aol.com
Tap to rate this tab
 
# A B C D E F G H I J K L M N O P Q R S T U V W X Y Z