Guitaretab - guitar tabs
Song name
# A B C D E F G H I J K L M N O P Q R S T U V W X Y Z
Home / U / Used / Dark Days tab

Used - Dark Days tab

I Know this isnít a great version but seems no one has one so I gave it a shot and 
can help me with it. Any suggestions on how you play would be appreciated.

Do note i have a lot of trouble timing with a tab so i know what i mean but can't put it 
but tried hard so yeah.


Tuning: Standard (As far as i can tell)
Intro  Guitar 1
e|--------------------------------------|
B|-4--------4---------------4-----4-----|
G|----5--------5--------5-----5-----5---|
D|------5--------5---5----5-----5-----5-| x 4
A|-----------------6--------------------|
E|--------------------------------------|

Guitar 2 (Play at appropriate time)
e|-12*-------------------------------7*|
B|-12*---------------------------------|
G|---------12*-------------7*----------|
D|-------------12*-----7*-------7*-----|
A|-----12*-----------------------------|
E|-------------------------------------|

Intro Part 2
Continued (Starts with bass) then
e|----------------------------------|
B|----------------------------------|
G|----------------------------------|
D|-33333355555555555555000000000000-|
A|-33333355555555555555000000000000-|
E|-33333355555555555555000000000000-|

Guitar 2
e|-999999999777777777799999999101099----|
B|--------------------------------------|
G|--------------------------------------|
D|--------------------------------------|
A|--------------------------------------|
E|--------------------------------------|

Verse 1
Guitar 1 (Palm Muted all) Repeat til chorus
e|-----------------------------------|
B|-----------------------------------|
G|-----------------------------------|
D|-6-6-6-6-6-6-6-6-8-8-8-8-8-8-8-8-8-|
A|-4-4-4-4-4-4-4-4-6-6-6-6-6-6-6-6-6-|
E|-----------------------------------|

Guitar 2
(At Appropriate time)
e|---------------------------------------------|
B|------------|            |Volume swell-13~---|
G|---------------------------------------------|
D|---------------------------------------------|
A|-7-7-7-777\----------------------------------| x2 then
E|-5-5-5-555\----------------------------------|

Chorus
e|---------------------------------------|
B|---------------------------------------|
G|---------------------------------------|
D|-6-6-6-666-6-8-8-8-8-8-4-444-4-444-4-4-| x2
A|-4-4-4-444-4-6-6-6-6-6-2-222-2-222-2-2-|
E|-4-4-4-444-4-6-6-6-6-6-2-222-2-222-2-2-|

Intro Part 2 again

Verse 2 Guitar one only (All harmonized)

e|--------------------12-12-------------------|
B|--------------------------------------------|
G|-----------12-12-12------------------7-7-7--|
D|------------------------------7-7-7---------|
A|-12--12-12----------------------------------|
E|---------------------------12---------------|

Chorus 2
Both guitars
e|---------------------------------------|
B|---------------------------------------|
G|---------------------------------------|
D|-6-6-6-666-6-8-8-8-8-8-4-444-4-444-4-4-| x2
A|-4-4-4-444-4-6-6-6-6-6-2-222-2-222-2-2-|
E|-4-4-4-444-4-6-6-6-6-6-2-222-2-222-2-2-|

e|---------------------------------------|
B|---------------------------------------|
G|---------------------------------------|
D|-8-8-8-888-8-10101010106-666-6-666-6-6-| x2
A|-6-6-6-666-6-8-8-8-8-8-4-444-4-444-4-4-|
E|-6-6-6-666-6-8-8-8-8-8-4-444-4-444-4-4-|
[ Tab from: http://www.guitaretab.com/u/used/167268.html ]
Bridge (Ö So Far Away etc)
(Harmonized)
Not sure on this bit, the notes are right just not sure on timing
e|--------12------------------------------------------------------|------7-|
B|-----------12--------------------------7--------7--------7---7--|----7---|
G|----12-------------12-----------12-------7-7------77------7----7|--7-----|
D|-12-------------------12-----12----12--------7-------7-----7----|7-------|
A|---------------12--------12--------------------7-------7--------|--------|
E|----------------------------------------------------------------|--------|

Last Chorus
e|-----------------------------------------|
B|-----------------------------------------|
G|---------8-8-8-8-888---------------------|
D|-77-77\--x-x-x-x-xxx-8-8-4-444-4-444-4-4-|
A|-77-77\--6-6-6-6-666-6-6-2-222-2-222-2-2-|
E|-77-77\--------------6-6-2-222-2-222-2-2-|

e|---------------------------------------|
B|---------------------------------------|
G|---------------------------------------|
D|-6-6-6-666-6-8-8-8-8-8-4-444-4-444-4-4-|
A|-4-4-4-444-4-6-6-6-6-6-2-222-2-222-2-2-|
E|-4-4-4-444-4-6-6-6-6-6-2-222-2-222-2-2-|

e|---------------------------------------|
B|---------------------------------------|
G|---------------------------------------|
D|-8-8-8-888-8-10101010106-666-6-666-6-6-| x2
A|-6-6-6-666-6-8-8-8-8-8-4-444-4-444-4-4-|
E|-6-6-6-666-6-8-8-8-8-8-4-444-4-444-4-4-|

Piano Outro
Guitar 1 Harmoized again
e|------12--7-----------12---12--------------------12-------------12-------|
B|------------------12----------12--------------------12-------12----------|
G|--12-----------12-------------------------12-12--------------------------|
D|------------12-------------------12---12-----12--------12-12-------------|
A|-------------------------------------------------------------------------|
E|-------------------------------------------------------------------------|

e|-----------------------------12------7~----------------------------------|
B|-12----------------------------------------------------------------------|
G|----12-7--7---------------12---------------------------------------------|
D|-------7----7------------------------------------------------------------|
A|------------7------7-----------------------------------------------------|
E|-------------------7-----------------------------------------------------|

Guitar 2 in the last little bit does a small volume swell of about
e|-------|
B|-------|
G|-------|
D|--13~--|
A|-------|
E|-------|


Lyrics  see the way that the sun spits in your face
Our love is to big for us to break
You got me wishing for the stars in outer space
I'm holding on to this life and love, and for...
The possibility, you and me, let me be

I need to find a way
To put this trouble behind us
Can't spend my life in shame
Making light of these dark days

I see the way that the rain spits in your face
Just falling apart your lips to taste
If I could give to you the stars in outer space
I'm holding on to this life and love, and for..
The possibility, you and me, let me be

I need to find a way
To put this trouble behind us
Can't spend my life in shame
(ba da ba ba ba ba ba da)
Making light of these dark days
Another time and place
To put this trouble behind us
(ba da ba ba ba ba ba da)
Can't spend my life in shame
(ba da ba ba ba ba ba da)
Making light of these dark days

So far away
So far away
(so far away)

Look into your heart
And let time heed this place
We're not so far away (we're not so far away)
The possibility, you and me, let me be

I need to find a way
To put this trouble behind us
Can't spend my life in shame
(ba da ba ba ba ba ba da)
Making light of these dark days
Another time and place
(ba da ba ba ba ba ba da)
To put this trouble behind us
Can't spend my life in shame
(ba da ba ba ba ba ba da)
Making light of these dark
Light of these dark
Light of these dark days

All as one, you made me come home.
All this, I'm one...to never follow.
In all this I'm one...who will ever love you.
All this I'm done....all this I'm done
Related for Dark Days tab