Song name
# A B C D E F G H I J K L M N O P Q R S T U V W X Y Z

Used - Empty With You tab

THE USED - EMPTY WITH YOU
From "Artwork"
*************************
TUNING: DROP D

Intro - Digital synth thing plays, then...
(00:06)
LEAD
e--------------------------------------------------|
B--------------------------------------------------|
G-------6-----------------------6------------------|
D-----7-----------7-----------7------------7-------|
A---9-----7~---5-----7~-----9------7~---5-----7~---|
D--------------------------------------------------|
RHYTHM
e---9~----------------------9~---------------------|
B---7~----------------------7~---------------------|
G---9~----------------------9~---------------------|
D---7~----------------------7~---------------------|
A--------------------------------------------------|
D--------------------------------------------------|

Verse (Play Twice): (00:20)
LEAD
e--------------------------------------------------|
B--------------------------------------------------|
G-------6-----------------------6------------------|
D-----7-----------7-----------7------------7-------|
A---9-----7~---5-----7~-----9------7~---5-----7~---|
D--------------------------------------------------|
RHYTHM
e---9~----------------------9~---------------------|
B---7~----------------------7~---------------------|
G---9~----------------------9~---------------------|
D---7~----------------------7~---------------------|
A--------------------------------------------------|
D--------------------------------------------------|


Chorus: (00:48)
--------------------------------------------------------|
--------------------------------------------------------|
--------------------------------------------------------|
-0--0--0-0--0--2--2--2-2--2--4--4--4-4--4--2--2--2-2--2-|
-0--0--0-0--0--2--2--2-2--2--4--4--4-4--4--2--2--2-2--2-|
-0--0--0-0--0--2--2--2-2--2--4--4--4-4--4--2--2--2-2--2-|

-------------------------------------------------------------------|
-------------------------------------------------------------------|
-------------------------------------------------------------------|
-0--0--0-0--0--2--2--2-2--2--4--4--4-4--4--2--2--2-2--2--xxxxxx----|
-0--0--0-0--0--2--2--2-2--2--4--4--4-4--4--2--2--2-2--2--xxxxxx----|
-0--0--0-0--0--2--2--2-2--2--4--4--4-4--4--2--2--2-2--2--xxxxxx----|

--------------------------------------------------------|
--------------------------------------------------------|
--------------------------------------------------------|
-0--0--0-0--0--2--2--2-2--2--4--4--4-4--4--2--2--2-2--2-|
-0--0--0-0--0--2--2--2-2--2--4--4--4-4--4--2--2--2-2--2-|
-0--0--0-0--0--2--2--2-2--2--4--4--4-4--4--2--2--2-2--2-|

Two guitars here:
-----------------------------|
-----------------------------|
-----------------------------|
-0--0--0-0--0--2--2--2-2--2--|
-0--0--0-0--0--2--2--2-2--2--|
-0--0--0-0--0--2--2--2-2--2--|

--------------------------------|
--------------------------------|
-14----------13------------11~--|
-x-----------x-------------x~---|
-12----------11------------9~---|
--------------------------------|

Verse (Play Twice):
e--------------------------------------------------|
B--------------------------------------------------|
G-------6-----------------------6------------------|
D-----7-----------7-----------7------------7-------|
A---9-----7~---5-----7~-----9------7~---5-----7~---|
D--------------------------------------------------|

Chorus:
--------------------------------------------------------|
--------------------------------------------------------|
--------------------------------------------------------|
-0--0--0-0--0--2--2--2-2--2--4--4--4-4--4--2--2--2-2--2-|
-0--0--0-0--0--2--2--2-2--2--4--4--4-4--4--2--2--2-2--2-|
-0--0--0-0--0--2--2--2-2--2--4--4--4-4--4--2--2--2-2--2-|

--------------------------------------------------------|
--------------------------------------------------------|
-7--7--7-7--7--9--9--9-9--9--11-11-1111-11-9--9--9-9--9-| (Second guitar is
-x--x--x-x--x--x--x--x-x--x--x--x--x-x--x--x--x--x-x--x-|  doing something
-5--5--5-5--5--7--7--7-7--7--9--9--9-9--9--7--7--7-7--7-|  like this...)
--------------------------------------------------------|

-------------------------------------------------------------------|
-------------------------------------------------------------------|
-------------------------------------------------------------------|
-0--0--0-0--0--2--2--2-2--2--4--4--4-4--4--2--2--2-2--2--xxxxxx----|
-0--0--0-0--0--2--2--2-2--2--4--4--4-4--4--2--2--2-2--2--xxxxxx----|
-0--0--0-0--0--2--2--2-2--2--4--4--4-4--4--2--2--2-2--2--xxxxxx----|

--------------------------------------------------------|
--------------------------------------------------------|
--------------------------------------------------------|
-0--0--0-0--0--2--2--2-2--2--4--4--4-4--4--2--2--2-2--2-|
-0--0--0-0--0--2--2--2-2--2--4--4--4-4--4--2--2--2-2--2-|
-0--0--0-0--0--2--2--2-2--2--4--4--4-4--4--2--2--2-2--2-|

----------------------------------------------------|
----------------------------------------------------|
----------------------------------------------------|
-0--0--0-0--0--2--2--2-2--2--4x4x4x4/-4x4x4x4/-4~---|
-0--0--0-0--0--2--2--2-2--2--4x4x4x4/-4x4x4x4/-4~---|
-0--0--0-0--0--2--2--2-2--2--4x4x4x4/-4x4x4x4/-4~---|

----------------------------------------------------|
----------------------------------------------------|
-14----------13--------------11111111/11111111/-14~-|
-x-----------x---------------x-x-x-x/-x-x-x-x/--x~--|
-12----------11--------------9-9-9-9/-9-9-9-9/--12~-|
----------------------------------------------------|

Bridge (2:10):
------------------------------------------------------|
------------------------------------------------------|
-6-7-9--7---6-7-9--7---6-7-9--7----6-7-9--7--6--------|
----------7----------7----------7---------------9--7~-|
------------------------------------------------------|
------------------------------------------------------|

"Instead of going underground..."
------------------------------------------------------|
------------------------------------------------------|
--7-9--7-----7-9--7-----7-9--7------7-9--7--6---------| (Guitar does this 4 or
----------7----------7----------7---------------9--7~-|  5 times faintly in
------------------------------------------------------|  the backgound)
------------------------------------------------------|

Guitar 2 (w/ Delay):
------------------------------------------------------|
------------------------------------------------------|
-11------11---------11---------11---------------11----|
------------------------------------------------------|
------------------------------------------------------|
------------------------------------------------------|

Pre-Chorus: (2:44)
------------------------|
------------------------|
-7--6--7--6--7--6--7----|
---------------------7--|
------------------------|
------------------------|

Final Chorus:
Guitar 1:
--------------------------------------------------------|
--------------------------------------------------------|
--------------------------------------------------------|
-0--0--0-0--0--2--2--2-2--2--4--4--4-4--4--2--2--2-2--2-|
-0--0--0-0--0--2--2--2-2--2--4--4--4-4--4--2--2--2-2--2-|
-0--0--0-0--0--2--2--2-2--2--4--4--4-4--4--2--2--2-2--2-|
Guitar 2:
--------------------------------------------------------|
--------------------------------------------------------|
-7--7--7-7--7--9--9--9-9--9--11-11-1111-11-9--9--9-9--9-|
-x--x--x-x--x--x--x--x-x--x--x--x--x-x--x--x--x--x-x--x-|
-5--5--5-5--5--7--7--7-7--7--9--9--9-9--9--7--7--7-7--7-|
--------------------------------------------------------|

-------------------------------------------------------------------|
-------------------------------------------------------------------|
-------------------------------------------------------------------|
-0--0--0-0--0--2--2--2-2--2--4--4--4-4--4--2--2--2-2--2--xxxxxx----|
-0--0--0-0--0--2--2--2-2--2--4--4--4-4--4--2--2--2-2--2--xxxxxx----|
-0--0--0-0--0--2--2--2-2--2--4--4--4-4--4--2--2--2-2--2--xxxxxx----|

-------------------------------------------------------------------|
-------------------------------------------------------------------|
-7--7--7-7--7--9--9--9-9--9--11-11-1111-11-9--9--9-9--9--xxxxxx----|
-x--x--x-x--x--x--x--x-x--x--x--x--x-x--x--x--x--x-x--x--xxxxxx----|
-5--5--5-5--5--7--7--7-7--7--9--9--9-9--9--7--7--7-7--7--xxxxxx----|
-------------------------------------------------------------------|

--------------------------------------------------------|
--------------------------------------------------------|
--------------------------------------------------------|
-0--0--0-0--0--2--2--2-2--2--4--4--4-4--4--2--2--2-2--2-|
-0--0--0-0--0--2--2--2-2--2--4--4--4-4--4--2--2--2-2--2-|
-0--0--0-0--0--2--2--2-2--2--4--4--4-4--4--2--2--2-2--2-|

---------------------------------------------|
---------------------------------------------|
---------------------------------------------|
-0--0--0-0--0--2--2--2-2--2--4x4x4x4/--4~/---|
-0--0--0-0--0--2--2--2-2--2--4x4x4x4/--4~/---|
-0--0--0-0--0--2--2--2-2--2--4x4x4x4/--4~/---|

------------------------------------------------|
------------------------------------------------|
-14----------13--------------11111111/-11~/-----|
-x-----------x---------------x-x-x-x/--x~/------|
-12----------11--------------9-9-9-9/--9~/------|
------------------------------------------------|

By AGiantRobot

(9/1/09)
Tap to rate this tab
# A B C D E F G H I J K L M N O P Q R S T U V W X Y Z