Song name
# A B C D E F G H I J K L M N O P Q R S T U V W X Y Z

Used - Born To Quit tab

Alright so this is my first tab so go easy on me haha. I'm not sure about the verse yet.

Intro:
-----------------------------------------|
-----------------------------------------|
-------------------7---------------------|
-0-2-3-2-0-3-8-7-5----0-2-3-2-0-3-8-7-12-|
-0-2-3-2-0-3-8-7-5-5--0-2-3-2-0-3-8-7-12-|
-0-2-3-2-0-3-8-7-5----0-2-3-2-0-3-8-7-12-|

verse: idk =/

Chorus:
----------------------|
----------------------|
-5----7---------10----|
-3----5----0----8-----|
-3X16-5X16-0X16-8-X16-|
-3----5----0----8-----|

Verse again
Intro
Chorus but on last time add
-------------|
-------------|
-------------|
-0-1-2-8-----|
-0-1-2-8X7---|
-0-1-2-8-----|

verse

Chorus

Intro X2

Hope you enjoy it =]
Tap to rate this tab
 
# A B C D E F G H I J K L M N O P Q R S T U V W X Y Z