Song name
# A B C D E F G H I J K L M N O P Q R S T U V W X Y Z

Used - Meant To Die tab

intro
guitar 1
e|---------------------    ---------------------------------|
B|---------------------    ---------------------------------|
G|------------444-------    ------------444-----------------|
D|-44-77----77---7-x6--then-44-77----77----77777777--8888888|
A|-------55------------    -------55------------------------|
D|---------------------    ---------------------------------|

guitar 2(Enters on 5th repeat of intro)
e|--------------------  -------------------------------------|
B|--------------------  -------------------------------------|
G|--------------------  -------------------------------------|
D|-44444444-0000-9997-x2-44444444-0000-9997-77777777-9999999-|
A|-44444444-0000-9997-  -44444444-0000-9997-77777777-9999999-|
D|-44444444-0000-9997-  -44444444-0000-9997-77777777-9999999-|


verse(comming soon, stil wrkn on it)

pre-chorus
(both guitars)
|-------------------------------------------------|
|-------------------------------------------------|
|-------------------------------------------------|
|-44444444-66666666-7777777777777777--------------|
|-44444444-66666666-7777777777777777--------------|
|-44444444-66666666-7777777777777777--------------|

chorus
|--------------------------------------  -----------|
|--------------------------------------  -----------|
|--------------------------------------  -----------|
|-444444444-00000000-7777777777777777--x2-----------|
|-444444444-00000000-7777777777777777--  -----------|
|-444444444-00000000-7777777777777777--  -----------|

|---------------------|
|---------------------|
|---------------------|
|-22222222/33333333---|
|-22222222/33333333---|
|-22222222/33333333---|

repeat intro part 1 twice(no 2nd guitar)

verse

pre-chorus

chorus
|--------------------------------------  -----------|
|--------------------------------------  -----------|
|--------------------------------------  -----------|
|-444444444-00000000-7777777777777777--x4-----------|
|-444444444-00000000-7777777777777777--  -----------|
|-444444444-00000000-7777777777777777--  -----------|

|---------------------|
|---------------------|
|---------------------|
|-22222222/33333333---|
|-22222222/33333333---|
|-22222222/33333333---|

seconds of silence wid sum funny scratching

breakdown
|------------------------------------  ----|
|------------------------------------  ----|
|------------444---------------------  ----|
|-44-77----77---7--44-77----7p6-6h77-x4----|
|-------55---------------55----------  ----|
|------------------------------------  ----|

chorus
|--------------------------------------  -----------|
|--------------------------------------  -----------|
|--------------------------------------  -----------|
|-444444444-00000000-7777777777777777--x4-----------|
|-444444444-00000000-7777777777777777--  -----------|
|-444444444-00000000-7777777777777777--  -----------|

|---------------------|
|---------------------|
|---------------------|
|-22222222/33333333---|
|-22222222/33333333---|
|-22222222/33333333---|

outro

|---------------------------------------|
|---------------------------------------|
|------------444--------------444-------|
|-44-77----77---7--44-77----77---7------|
|-------55---------------55-------------|
|---------------------------------------|

guitar 2
|---------------------------------------|
|---------------------------------------|
|---------------------------------------|
|-------------4-44---------------4------|
|-------------4-44---------------4------|
|-------------4-44---------------4------|
Tap to rate this tab
# A B C D E F G H I J K L M N O P Q R S T U V W X Y Z