Song name
# A B C D E F G H I J K L M N O P Q R S T U V W X Y Z

Used - Men Are All The Same tab

----------------------------------------------------------------------------
		   Men Are All The Same - The Used
----------------------------------------------------------------------------
Tabbed by: Eleison
Email: jakattack_2429@yahoo.com

Tuning: DADGBe

Intro:

e|-------------------------------------------------------------------------|
B|-------------------------------------------------------------------------|
G|-------------------------------------------------------------------------|
D|-------------------------------------------------------------------------|
A|-------------------------------------------------------------------------|
D|--0-0-0-0-0-0-6-6-6-6-6-6-6-6-6-6-5-5-5-5-5-5-5-5-1-1-1-1-1-1-1-1-(x3)---|

e|-------------------------------------------------------------------------|
B|-------------------------------------------------------------------------|
G|-------------------------------------------------------------------------|
D|------------------------------------------------------------------0~-----|
A|------------------------------------------------------------------0~-----|
D|--0-0-0-0-0-0-6-6-6-6-6-6-6-6-6-6-5-5-5-5-5-5-5-5-1-1-1-1-1-1-1-1-0~-----|

Verse: As far as I can tell theres not to much aside from some background noise.

Chorus:

e|-------------------------------------------------------------------------|
B|-------------------------------------------------------------------------|
G|-------------------------------------------------------------------------|
D|-------------------------------------------------------------------------|
A|-------------------------------------------------------------------------|
D|--0-0-0-0-0-0-6-6-6-6-6-6-6-6-6-6-5-5-5-5-5-5-5-5-1-1-1-1-1-1-1-1--------|

e|-------------------------------------------------------------------------|
B|-------------------------------------------------------------------------|
G|-------------------------------------------------------------------------|
D|------------------------------------------------------------------0~-----|
A|------------------------------------------------------------------0~-----|
D|--0-0-0-0-0-0-6-6-6-6-6-6-6-6-6-6-5-5-5-5-5-5-5-5-1-1-1-1-1-1-1-1-0~-----|

Verse: Same as the first verse except for a piece just before the second chorus that is 
hard to hear.

e|-------------------------------------------------------------------------|
B|-------------------------------------------------------------------------|
G|-------------------------------------------------------------------------|
D|-------------------------------------------------------------------------|
A|-------------------------------------------------------------------------|
D|--6-(x24)-8-(x8)---------------------------------------------------------|

Chorus:

e|-------------------------------------------------------------------------|
B|-------------------------------------------------------------------------|
G|-------------------------------------------------------------------------|
D|-------------------------------------------------------------------------|
A|-------------------------------------------------------------------------|
D|--0-0-0-0-0-0-6-6-6-6-6-6-6-6-6-6-5-5-5-5-5-5-5-5-1-1-1-1-1-1-1-1-(x3)---|

e|-------------------------------------------------------------------------|
B|-------------------------------------------------------------------------|
G|-------------------------------------------------------------------------|
D|------------------------------------------------------------------0~-----|
A|------------------------------------------------------------------0~-----|
D|--0-0-0-0-0-0-6-6-6-6-6-6-6-6-6-6-5-5-5-5-5-5-5-5-1-1-1-1-1-1-1-1-0~-----|

Outro

e|-------------------------------------------------------------------------|
B|-------------------------------------------------------------------------|
G|-------------------------------------------------------------------------|
D|--1--1--1--1--1--1--1--1--1--1--1--1--1--1--1--1-------------------------|
A|--1--1--1--1--1--1--1--1--1--1--1--1--1--1--1--1-------------------------|
D|--1--1--1--1--1--1--1--1--1--1--1--1--1--1--1--1-------------------------|

e|-------------------------------------------------------------------------|
B|-------------------------------------------------------------------------|
G|-------------------------------------------------------------------------|
D|-------------------------------------------------------------------------|
A|-------------------------------------------------------------------------|
D|--0-0-0-0-0-0-0-0-0-0-0-0-0-0-0-0-8-8-8-8-8-8-8-8-8-8-8-8-8-8-8-8--------|
 PM . . . . . . . . . . . . . . . . . . . . . . . . . . . . . . . .

e|-------------------------------------------------------------------------|
B|-------------------------------------------------------------------------|
G|-------------------------------------------------------------------------|
D|-------------------------------------------------------------------------|
A|-------------------------------------------------------------------------|
D|--3-3-3-3-3-3-3-3-3-3-3-3-3-3-3-3-2-2-2-2-2-2-2-2-2-2-2-2-2-2-2-2--x4----|
 PM . . . . . . . . . . . . . . . . . . . . . . . . . . . . . . . .

Outro: When Bert starts singing.

e|-------------------------------------------------------------------------|
B|-------------------------------------------------------------------------|
G|-------------------------------------------------------------------------|
D|-------------------------------------------------------------------------|
A|-------------------------------------------------------------------------|
D|--0-0-0-0-0-0-0-0-0-0-0-0-0-0-0-0-8-8-8-8-8-8-8-8-8-8-8-8-8-8-8-8--------|

e|-------------------------------------------------------------------------|
B|-------------------------------------------------------------------------|
G|-------------------------------------------------------------------------|
D|-------------------------------------------------------------------------|
A|-------------------------------------------------------------------------|
D|--3-3-3-3-3-3-3-3-3-3-3-3-3-3-3-3-2-2-2-2-2-2-2-2-2-2-2-2-2-2-2-2--x6----|

Outro: This is the part that comes in after the song fades into static and back out.

e|-------------------------------------------------------------------------|
B|-------------------------------------------------------------------------|
G|-------------------------------------------------------------------------|
D|--0-0-0-0-0-0-0-0-0-0-0-0-0-0-0-0-8-8-8-8-8-8-8-8-8-8-8-8-8-8-8-8--------|
A|--0-0-0-0-0-0-0-0-0-0-0-0-0-0-0-0-8-8-8-8-8-8-8-8-8-8-8-8-8-8-8-8--------|
D|--0-0-0-0-0-0-0-0-0-0-0-0-0-0-0-0-8-8-8-8-8-8-8-8-8-8-8-8-8-8-8-8--------|

e|-------------------------------------------------------------------------|
B|-------------------------------------------------------------------------|
G|-------------------------------------------------------------------------|
D|--3-3-3-3-3-3-3-3-3-3-3-3-3-3-3-3-2-2-2-2-2-2-2-2-2-2-2-2-2-2-2-2--------|
A|--3-3-3-3-3-3-3-3-3-3-3-3-3-3-3-3-2-2-2-2-2-2-2-2-2-2-2-2-2-2-2-2--------|
D|--3-3-3-3-3-3-3-3-3-3-3-3-3-3-3-3-2-2-2-2-2-2-2-2-2-2-2-2-2-2-2-2--x2----|

e|-------------------------------------------------------------------------|
B|-------------------------------------------------------------------------|
G|-------------------------------------------------------------------------|
D|--0~~--------------------------------------------------------------------|
A|--0~~--------------------------------------------------------------------|
D|--0~~--------------------------------------------------------------------|

************************************

| /   slide up
| \   slide down
| h   hammer-on
| p   pull-off
| ~   vibrato
| +   harmonic
| x   Mute note
| b   Bend
| pb  Pre-bend
| br  Bend release
| pbr Pre-bend release
| brb Bend release bend

************************************
Tap to rate this tab
# A B C D E F G H I J K L M N O P Q R S T U V W X Y Z