Song name
# A B C D E F G H I J K L M N O P Q R S T U V W X Y Z

Used - Sold My Soul tab

Sold My Soul- The Used
(played in Drop D)

This is my second tab, hope it's alright :)


Intro 1: (with delay, because I donít have an effects pedal I tabbed it out as though I
playing the notes being delayed)

----------------------------------------------------|
--7-7-9-10-10-10-9-9--------------------------------|
----------------------------------------------------|
----------------------------------------------------| x2
----------------------------------------------------|
----------------------------------------------------|

Intro 2: (you can choose to bend these notes but it doesnít make a substantial difference)

----------------------------------------------------|
--17-17-16-16-16p14-17-17-16-16-16p14---------------|
----------------------------------------------------|
----------------------------------------------------|
----------------------------------------------------|
----------------------------------------------------|

(Continued)


-----------------------------------------------------|
14b-14b-14b-14b-1414141415-12b-12b-12b-12b-1212121212|
-----------------------------------------------------|
-----------------------------------------------------|
-----------------------------------------------------|
-----------------------------------------------------|

Verse:

-----------------------------------------------------|
-----------------------------------------------------|
-----------------------------------------------------|
--4------0------(222)--------------------------------| x2
--4-x 32-0-x 32-(222)--------------------------------|
--4------0------(222)--------------------------------|
PM*      *

Bracketed notes can be played on the second time you play the verse.


Pre-Chorus:

----------------------------------------------------|
----------------------------------------------------|
----------------------------------------------------|
44404--44-4040--44404--442222-00000--00-0000-0------|
44404--44-4040--44404--442222-00000--00-0000-0------|
44404--44-4040--44404--442222-00000--00-0000-0------|

Chorus:

----------------------------------------------------|
----------------------------------------------------|
----------------------------------------------------|
00000000-22222222-4444444422222222------------------| x2
00000000-22222222-4444444422222222------------------|
00000000-22222222-4444444422222222------------------|

----------------------------------------------------|
----------------------------------------------------|
----------------------------------------------------|
0-00-2-22-4444477779/-------------------------------|
0-00-2-22-4444477779/-------------------------------|
0-00-2-22-4444477779/-------------------------------|

----------------------------------------------------|
----------------------------------------------------|
----------------------------------------------------|
0000022222222---------------------------------------|
0000022222222---------------------------------------|
0000022222222---------------------------------------|

Intro 2: (you can choose to bend these notes but it doesnít make a substantial difference)

----------------------------------------------------|
--17-17-16-16-16p14-17-17-16-16-16p14---------------|
----------------------------------------------------|
----------------------------------------------------|
----------------------------------------------------|
----------------------------------------------------|

(Continued)


-----------------------------------------------------|
14b-14b-14b-14b-1414141415-12b-12b-12b-12b-1212121212|
-----------------------------------------------------|
-----------------------------------------------------|
-----------------------------------------------------|
-----------------------------------------------------|

Verse 2:

-----------------------------------------------------|
-----------------------------------------------------|
-----------------------------------------------------|
--4------0------(22)---------------------------------| x2
--4-x 32-0-x 32-(22)---------------------------------|
--4------0------(22)---------------------------------|
PM*      *

Bracketed notes can be played on the second time you play the verse.

Pre-Chorus 2:

-----------------------------------------------------|
-----------------------------------------------------|
-----------------------------------------------------|
--4------0------0-------------------------------xxxx-|
--4-x 32-0-x 16-0(sustain for another 16 beats)-xxxx-|
--4------0------0-------------------------------xxxx-|

Chorus 2:

----------------------------------------------------|
----------------------------------------------------|
----------------------------------------------------|
00000000-22222222-4444444422222222------------------| x2
00000000-22222222-4444444422222222------------------|
00000000-22222222-4444444422222222------------------|

----------------------------------------------------|
----------------------------------------------------|
----------------------------------------------------|
0-00-2-22-4444477779/-------------------------------|
0-00-2-22-4444477779/-------------------------------|
0-00-2-22-4444477779/-------------------------------|

----------------------------------------------------|
----------------------------------------------------|
----------------------------------------------------|
000002----------------------------------------------|
000002----------------------------------------------|
000002----------------------------------------------|


Bridge 1 (Intro 1): (with delay, because I donít have an effects pedal I tabbed it out
though I was playing the notes being delayed)

----------------------------------------------------|
--7-7-9-10-10-10-9-9--------------------------------|
----------------------------------------------------| x2
----------------------------------------------------|
----------------------------------------------------|
----------------------------------------------------|


Bridge 2:

I canít work out what the guitar is actually playing, because of the effect that is
used on the guitar, in those really quick sounding notes. But I think very faintly in the
you can hear these chords that another guitar is playing (even if Iím wrong here it 
fits in with the song and sounds good):


-----------------------------------------------------|
-----------------------------------------------------|
-----------------------------------------------------|
4--2--0----4--2--00000000222222224444444444444444----|
4--2--0----4--2--00000000222222224444444444444444----|
4--2--0----4--2--00000000222222224444444444444444----|
              PM ***********************(gradually release palm muting here)
(Sustain each note)

Chorus 3:

----------------------------------------------------|
----------------------------------------------------|
----------------------------------------------------|
0000-22222222-4444444422222222----------------------|
0000-22222222-4444444422222222----------------------|
0000-22222222-4444444422222222----------------------|

----------------------------------------------------|
----------------------------------------------------|
----------------------------------------------------|
00000000-22222222-4444444422222222------------------|
00000000-22222222-4444444422222222------------------|
00000000-22222222-4444444422222222------------------|

----------------------------------------------------|
----------------------------------------------------|
----------------------------------------------------|
0-00-2-22-4444477779/-------------------------------|
0-00-2-22-4444477779/-------------------------------|
0-00-2-22-4444477779/-------------------------------|

----------------------------------------------------|
----------------------------------------------------|
----------------------------------------------------|
0000022222222---------------------------------------|
0000022222222---------------------------------------|
0000022222222---------------------------------------|

Intro 2: (you can choose to bend these notes but it doesnít make a substantial difference)

----------------------------------------------------|
--17-17-16-16-16p14-17-17-16-16-16p14---------------|
----------------------------------------------------|
----------------------------------------------------|
----------------------------------------------------|
----------------------------------------------------|

(Continued)


-----------------------------------------------------|
14b-14b-14b-14b-1414141415-12b-12b-12b-12b-1212121212|
-----------------------------------------------------|
-----------------------------------------------------|
-----------------------------------------------------|
-----------------------------------------------------|
Tap to rate this tab
# A B C D E F G H I J K L M N O P Q R S T U V W X Y Z