Used - On My Own tab

Ok, so. There's no tab around here that is perfect, and I can honestly say that mine will 
not be as well. At least, I'll try to give you the most close to what it really sounds. 

About the tunning, on the 'purevolume' vid, I believe Quinn is using some sort of Open D, 
as he uses his pinky finger on 7th fret of the 2nd string, and he needs to get the 3 main 
notes for the main riff: D, C# and E. 
I'll use Drop D for this tab, as it's easier to tune wherever you are playing this song :) 

() - optionals, sometimes sounds right, sometimes sounds crap. Choose the best for you.
~  - let ring

Goes like this:

Intro
Verse
Chorus
Post-Chours
Verse
Chorus
Post-Chorus 2x
Screamed Post-Chorus 2x
Chorus
Post-Chorus 2x

Intro - You'll have to practice a little, cause you need to do it precisely and quickly.

e|-----(0)--------(0)------------(0)--0-0000-0000-0000-(0-0000)---|
B|------5----------5--------------5---5-5555-5555-5555-(5-5555)---| 
G|--------6------6-----6--------6-----6-6666-6666-6666-(6-6666)---| 
D|--0-0-----0-0-0-0---0-0-0-0--0-0----4-4444-4444-4444--7-7777----| 
A|--5-5-------5-5-5---5-5-5-5--5-5----4-4444-4444-4444--7-7777----| 
D|--0-0-------0-0-0---0-0-0-0--0-0----4-4444-4444-4444--7-7777----| 

e|-----(0)--------(0)------------(0)--0-0000-0000-0000--0~-0-0000-|
B|------5----------5--------------5---5-5555-5555-5555--0~-0-0000-| 
G|--------6------6-----6--------6-----6-6666-6666-6666--2~-2-2222-| 
D|--0-0-----0-0-0-0---0-0-0-0--0-0----4-4444-4444-4444--4~-4-4444-| 
A|--5-5-------5-5-5---5-5-5-5--5-5----4-4444-4444-4444--4~-4-4444-| 
D|--0-0-------0-0-0---0-0-0-0--0-0----4-4444-4444-4444--4~-4-4444-| 

Verse - Almost same shapes for the intro

e|-----(0)--------(0)------------(0)--0-0000-0000-0000-(0-0000)---|
B|------5----------5--------------5---5-5555-5555-5555-(5-5555)---| 
G|--------6------6-----6--------6-----6-6666-6666-6666-(6-6666)---| 
D|--0-0-----0-0-0-0---0-0-0-0--0-0----4-4444-4444-4444--7-7777----| 
A|--5-5-------5-5-5---5-5-5-5--5-5----4-4444-4444-4444--7-7777----| 
D|--0-0-------0-0-0---0-0-0-0--0-0----4-4444-4444-4444--7-7777----|

e|-----(0)--------(0)------------(0)--0-0000-0000-0000-0000-------|
B|------5----------5--------------5---5-5555-5555-5555-5555-------| 
G|--------6------6-----6--------6-----6-6666-6666-6666-6666-------| 
D|--0-0-----0-0-0-0---0-0-0-0--0-0----4-4444-4444-4444-4444-------| 
A|--5-5-------5-5-5---5-5-5-5--5-5----4-4444-4444-4444-4444-------| 
D|--0-0-------0-0-0---0-0-0-0--0-0----4-4444-4444-4444-4444-------|

Chorus

e|------------------------------------------------------------------|
B|-0----0----0----0------0----0---0----0-------0----0----0----0-----|
G|-11111111111111111111--22222222222222222222--11111111111111111111-|
D|-22222222222222222222--44444444444444444444--22222222222222222222-|
A|-22222222222222222222--44444444444444444444--22222222222222222222-|
D|-22222222222222222222--44444444444444444444--22222222222222222222-|

Post-Chorus - Album version it's on violins, but...

e|---------------------(0-0000)---------------------(0-0000)---|
B|---------------------(5-5555)---------------------(5-5555)---|
G|---------------------(6-6666)---------------------(6-6666)---|
D|--4--4-4-6--6-6-6/7---7-7777---4--4-4-6--6-6-6/7---7-7777----|
A|-(5--5-5-5--5-5-5-5)--7-7777--(5--5-5-5--5-5-5-5)--7-7777----|
D|----------------------7-7777-----------------------7-7777----| 
   (On   my   own... )

For screamed Post-Chorus, i THINK it's something like this.

e|--0-0000-0000-0000-0000-(0-0000-0000-0000-0000-)-|
B|--5-5555-5555-5555-5555-(5-5555-5555-5555-5555-)-| 
G|--6-6666-6666-6666-6666-(6-6666-6666-6666-6666-)-| 
D|--4-4444-4444-4444-4444--7-7777-7777-7777-7777---| 
A|--4-4444-4444-4444-4444--7-7777-7777-7777-7777---| 
D|--4-4444-4444-4444-4444--7-7777-7777-7777-7777---|
                 OOON MYYY OWWWWN  ~*SCREAM*~ 

Enjoy, and sorry for any mistake :)
Tap to rate this tab
 
# A B C D E F G H I J K L M N O P Q R S T U V W X Y Z