Used - Pain tab

This is my first tab, so if it sucks im sorry.


Intro part 1:
guitar 1
e[----------------------------|
b[----------10------------10--|
g[---11--9----11---11--9------|
d[-11--11-11-----11--11-11----|
a[----------------------------|
d[----------------------------|

e[--------------------------------|
b[----------10---------10------10-|
g[---11--9----11---11------11-----|
d[-11--11-11-----11--11--11--11---|
a[--------------------------------|
d[--------------------------------|

Intro part 2:
guitar 1
e[-555-----------------555------------555-----------------555777---|
b[----5557775h7p57p5------5557--7-7-5----5557775h7p57p5---------7--|
g[------------------66---------------------------------66----------|
d[-----------------------------------------------------------------|
a[-----------------------------------------------------------------|
d[-----------------------------------------------------------------|
guitar 2
e[-----------------------------------------------------------------|
b[-----------------------------------------------------------------|
g[-----------------------------------------------------------------|
d[-444-222-7777777---------------------777-999-4-------------------|
a[-444-222-7777777--play-3-times-then--777-999-4-------------------|
d[-444-222-7777777---------------------777-999-4-------------------|

Verse:
both guitars
THE WHOLE VERSE IS PALM MUTED
e[-----------------                          e[-----------|
b[-----------------                          b[-----------|
g[-----------------                          g[-----------|
d[----------------- again, play 3 times then d[-----------|
a[-----------------                          a[-----------|
d[-444-222-7777777-                          d[-777-999-4-|

Pre-chorus:
Sorry, I haven't figured out this part of the song yet

Chorus:
both guitars
e[-----------------------------------------------------------------|
b[-----------------------------------------------------------------|
g[-----------------------------------------------------------------|
d[-444-222-7777777---------------------777-999-4-------------------|
a[-444-222-7777777--play-3-times-then--777-999-4-------------------|
d[-444-222-7777777---------------------777-999-4-------------------|

Reapeat the whole verse, pre-chorus, and chorus then play the intro

Bridge part 1: clean
both guitars
e[-2-3-0-2---2-5-0-2-|
b[-3-3-3-3---3-3-3-3-|
g[-2-2-2-2---2-2-2-2-|   all I can tell you about this part of the bridge is
d[-0-0-0-0---0-0-0-0-|   play around with these chords.
a[-0-0-0-0---0-0-0-0-|
d[-------------------|

Bridge part 2: distorted
guitar 1
e[---------------------------|
b[-7-77-77-7777-5-55-55-5555-|
g[-x-xx-xx-xxxx-x-xx-xx-xxxx-|
d[-4-44-44-4444-2-22-22-2222-|  play 4 times
a[-4-44-44-4444-2-22-22-2222-|
d[-4-44-44-4444-2-22-22-2222-|
guitar 2 comes in with this after guitar 1 plays whats above 2 times
e[------------------------------------------
b[-1919191919191919191917171717171717171717-
g[------------------------------------------|
d[------------------------------------------|
a[------------------------------------------|
d[------------------------------------------|

Last Chorus:
both guitars
e[-----------------------------------------------------------------|
b[-----------------------------------------------------------------|
g[-----------------------------------------------------------------|
d[-444-222-7777777---------------------777-999-4-------------------|
a[-444-222-7777777--play-3-times-then--777-999-4-------------------|
d[-444-222-7777777---------------------777-999-4-------------------|

guitar 1
e[-555-----------------555------------555-----------------555777---|
b[----5557775h7p57p5------5557--7-7-5----5557775h7p57p5---------7--|
g[------------------66---------------------------------66----------|
d[-----------------------------------------------------------------|
a[-----------------------------------------------------------------|
d[-----------------------------------------------------------------|
guitar 2
e[-----------------------------------------------------------------|
b[-----------------------------------------------------------------|
g[-----------------------------------------------------------------|
d[-444-222-7777777---------------------777-999-4-------------------|
a[-444-222-7777777--play-3-times-then--777-999-4-------------------|
d[-444-222-7777777---------------------777-999-4-------------------|
then...
guitar 1
e[-555777------------------|
b[-------7----5557----5557-|
g[---------777-----777-----|
d[-------------------------|
a[-------------------------|
d[-------------------------|
guitar 2
e[--------------------------------|
b[--------------------------------|
g[--------------------------------|
d[-777-999-4-000-222-4-000-222-4--|
a[-777-999-4-000-222-4-000-222-4--|
d[-777-999-4-000-222-4-000-222-4--|

Outro:
guitar 1
e[-----------------                   e[-------------------------|
b[-7---7---7\555---                   b[-7\555-7\555-7\555-7-7-7-|
g[-x---x---x-xxx--- play 3 times then g[-x-xxx-x-xxx-x-xxx-x-x-x-|
d[-444444444\222---                   d[-4\222-4\222-4\222-4-4-4-|
a[-----------------                   a[-------------------------|
d[-----------------                   d[-------------------------|
PM  ^^^ ^^^
guitar 2
e[-----------------                   e[-------------------------|
b[-----------------                   b[-------------------------|
g[----------------- play 3 times then g[-------------------------|
d[-4---4---4\222---                   d[-4\222-4\222-4\222-4-4-4-|
a[-4---4---4\222---                   a[-4\222-4\222-4\222-4-4-4-|
d[-444444444\222---                   d[-4\222-4\222-4\222-4-4-4-|
PM  ^^^ ^^^
Tap to rate this tab
 
# A B C D E F G H I J K L M N O P Q R S T U V W X Y Z