Song name
# A B C D E F G H I J K L M N O P Q R S T U V W X Y Z

Used - The Best Of Me tab

I posted this tab on the other tab link called, "The Used".
I noticed that this tab link called, "Used," has more tabs so I thought I'd 
post it up on this tab link also.

Tuning: Half a step down in Drop D
PM = Palm Mute where the periods are
~ = let it ring
/ = slide
X = scratch
*Comment and rate it so I can know whether I should leave it up or not.*




Eb|---------------------|
Bb|---------------------|
Gb|---------------------|  
Db|-7~---8~---0~~-------|  4xs intro
Ab|---------------------|
Db|-8~---5~---0~~-------|

|------------------------------------------------------------------|
|------------------------------------------------------------------|
|------------------------------------------------------------------|
|------------------------------------------------------------------|  4xs
|-10------8------7-----8-----7-----5------7----5-----3-----5-------|
|------0------0------0-----0-----0-----0-----0-----0----0-----000--|


|---------0-------------------0---------------|
|---------3-------------------3---------------|
|---------2-------------------2--3-3-3--6-6-6-|  
|-00-0-0--0--00-0-0~--00-0-0--0--3-3-3--X-X-X-|  2xs
|-00-0-0-----00-0-0~--00-0-0-----1-1-1--4-4-4-|
|-00-0-0-----00-0-0~--00-0-0------------------|

|--------------|
|--------------|
|--------------|
|-8~--5~--0~~--| 2xs
|-8~--5~--0~~--|
|-8~--5~--0~~--|
I could forget your name

|-------------|
|-------------|
|-------------|
|-8~--5~--0-0-|
|-8~--5~--0-0-|
|-8~--5~--0-0-|
PM        . .
I could forget how you had tried to get the best of me 


|---------0-------------------0---||------
|---------3-------------------3---||------
|---------2-------------------2---||------
|-00-0-0--0--00-0-0~--00-0-0--0---||------SCRATCH
|-00-0-0-----00-0-0~--00-0-0------||------SLIDE (from bottom of neck-up)
|-00-0-0-----00-0-0~--00-0-0------||------
	YOU!    NEVER!.GOT|... ....ME!!!!

|-----------------------------------|
|-----------------------------------|
|-----------------------------------|
|-8-8-8-8-5-5-5-5-00-0--0~-00-0--0~-| 2xs
|-8-8-8-8-5-5-5-5-00-0--0~-00-0--0~-|
|-8-8-8-8-5-5-5-5-00-0--0~-00-0--0~-|
Real nice to know that you care 

|-------------|
|-------------|
|-------------|
|-------------| Palm Mute: double pick on 
|-------------| the twelfth fret
|-12-12-12-12-|
   .  .  .  .
You make me wana forget

|--------------|
|--------------|
|--------------|
|-8~--5~--0~~--| 2xs
|-8~--5~--0~~--|
|-8~--5~--0~~--|
I could forget your pride

|-------------|
|-------------|
|-------------|
|-8~--5~--0-0-|
|-8~--5~--0-0-|
|-8~--5~--0-0-|
          . .

I could forget how you had tried to get the best of me 
|---------0-------------------0---||------
|---------3-------------------3---||------
|---------2-------------------2---||------
|-00-0-0--0--00-0-0~--00-0-0--0---||------SCRATCH
|-00-0-0-----00-0-0~--00-0-0------||------SLIDE (from bottom of neck-up)
|-00-0-0-----00-0-0~--00-0-0------||------
	YOU!.....NEVER.......GOT....ME!"

|-----------------------------------|
|-----------------------------------|
|-----------------------------------|
|-8-8-8-8-5-5-5-5-00-0--0~-00-0--0~-| 4xs
|-8-8-8-8-5-5-5-5-00-0--0~-00-0--0~-|
|-8-8-8-8-5-5-5-5-00-0--0~-00-0--0~-|
Real nice to know that you care 

|-----------|
|-----------|
|-----------|
|-----------| P.M. double pick
|-----------|
|-0-0-0-0---| 
PM. . . .

|------------------------------------------------------------------|
|------------------------------------------------------------------|
|------------------------------------------------------------------|
|------------------------------------------------------------------| 8xs
|-10------8------7-----8-----7-----5------7----5-----3-----5-------|
|------0------0------0-----0-----0-----0-----0-----0----0-----000--|

Solo: I cant figure out the solo
Just this part: 3 minutes and 37 seconds
|--------------------------------------------|
|--------------------------------------------|
|-7b-b-b-b~7b-b-b-b~-7/10~-10/12~-12/15~-14--|
|--------------------------------------------|
|--------------------------------------------|
|--------------------------------------------| 
Bend 7; the bs are the repetition of the bend without a strum

|-----------------------------------|
|-----------------------------------|
|-----------------------------------|
|-8-8-8-8-5-5-5-5-00-0--0~-00-0--0~-| 4xs
|-8-8-8-8-5-5-5-5-00-0--0~-00-0--0~-|
|-8-8-8-8-5-5-5-5-00-0--0~-00-0--0~-|
Real nice to know that you care 

|-------------||---------|
|-------------||---------|
|-------------||---------| 
|-10-10-10-10-||-8-8-8-8-| 
|-10-10-10-10-||-8-8-8-8-| 
|-10-10-10-10-||-8-8-8-8-| 
    4xs	  4xs
(You make me. you make me) You make me wana forget

|-------------||-------------|
|-------------||-------------|
|-------------||-------------|
|-10-10-10-10-||-11-11-11-11-|
|-10-10-10-10-||-12-12-12-12-|
|-10-10-10-10-||-11-11-11-11-|
	2xs		2xs

|---0-----|
|---3-----|
|---2-----|
|-0-0-----| 3xs 
|-0-------|
|-0-------|

|-----|
|-----|
|-----|
|-0~~-|
|-0~~-|
|-0~~-|

I can definetly hear another guitar in this song, but I can't make it out.

Here's something u can work with. Its at 2 minutes and 24 seconds
(this is only one of many second guitar parts)
|-------5---0-------|
|---6---------6---6-|
|-7---7---7-----7---|
|-------------------|
|-------------------|
|-------------------|
Tap to rate this tab
 
# A B C D E F G H I J K L M N O P Q R S T U V W X Y Z