Song name
# A B C D E F G H I J K L M N O P Q R S T U V W X Y Z

Used - Hands And Faces tab

-----------------------------------------------------------------------------
                             Hands and Faces - The Used
-----------------------------------------------------------------------------


Tuning:Drop D

Intro/Verse
e|--------------12-12-11-11-9--9--11-11-9--9--11-11----|
B|--12-12-12-12-13-13-12-12-10-10-12-12-10-10-12-12----|
G|--12-12-12-12----------------------------------------|
D|-----------------------------------------------------|
A|-----------------------------------------------------|
D|-----------------------------------------------------|

e|--------------12-12-11-11-9--9--11-11-9--9--------------|
B|--12-12-12-12-13-13-12-12-10-10-12-12-10-10-------------|
G|--12-12-12-12-------------------------------------------|
D|---------------------------------------------xx-xxxx----|
A|---------------------------------------------xx-xxxx----|
D|---------------------------------------------xx-xxxx----|

Chorus
e|-----------------------------------------------------------|
B|-----------------------------------------------------------|
G|----------------------222222-------------------------------|
D|-222222-555555-000000-222222--222222-555555-000000000000---|
A|-222222-555555-000000-000000--222222-555555-000000000000---|
D|-222222-555555-000000---------222222-555555-000000000000---|
                                                      ..
e|-------------------------------------------------------------|
B|-------------------------------------------------------------|
G|---------------555555-444444-----------------------------5~--|
D|-222222-555555-555555-444444-222222-555555-000000000000--5~--|
A|-222222-555555-333333-222222-222222-555555-000000000000--3~--|
D|-222222-555555---------------222222-555555-000000000000------|
                         
Verse                             
e|--------------12-12-11-11-9--9--11-11-9--9------|
B|--12-12-12-12-13-13-12-12-10-10-12-12-10-10-----|
G|--12-12-12-12-----------------------------------|
D|------------------------------------------------|
A|------------------------------------------------|
D|------------------------------------------------|
listen for accuracy strumming
e|------------------------------------------------------------------|
B|------------------------------------------------------------------|
G|---------------------5-55-54-44-4-2-22-24-44-4-2-22-24-44---------|
D|-2-22-22-2/5--2/5-5--5-55-54-44-4-2-22-24-44-4-2-22-24-44---------|
A|-2-22-22-2/5--2/5-5--3-33-32-22-2-0-00-02-22-2-0-00-02-22-2-0-----|
D|-2-22-22-2/5--2/5-5-------------------------------------------5-4-|
     .  .                .            .
Chorus
e|-----------------------------------------------------------|
B|-----------------------------------------------------------|
G|----------------------222222-------------------------------|
D|-222222-555555-000000-222222--222222-555555-000000000000---|
A|-222222-555555-000000-000000--222222-555555-000000000000---|
D|-222222-555555-000000---------222222-555555-000000000000---|
                                                      
e|-------------------------------------------------------------|
B|-------------------------------------------------------------|
G|---------------555555-444444-----------------------------5~--|
D|-222222-555555-555555-444444-222222-555555-000000000000--5~--|
A|-222222-555555-333333-222222-222222-555555-000000000000--3~--|
D|-222222-555555---------------222222-555555-000000000000------|

Interlude            
e|-7~---------------|or there's a second-----------------------------|you play
B|-8~with some sort-|-guitar in the background-this is how I play it-|that for
G|-9~of delay-------|-----0-----0----------2-0---2-0-----------------|a while
D|-9~---------------|-------2-----2------2---------------------------|
A|-7~---------------|---2--------------0-------0---------------------|
D|------------------|-2-------2--------------------------------------|

e|-------------------------------------|
B|-------------------------------------|
G|------0------0---------0-------------|
D|----2---2------2-----0---0----2~-----|
A|--3--------3-------2-------2--2~-----|
D|------------------------------2~-----|

Chorus
e|-----------------------------------------------------------|
B|-----------------------------------------------------------|
G|----------------------222222-------------------------------|
D|-222222-555555-000000-222222--222222-555555-000000000000---|
A|-222222-555555-000000-000000--222222-555555-000000000000---|
D|-222222-555555-000000---------222222-555555-000000000000---|
                                                      
e|-------------------------------------------------------------|
B|-------------------------------------------------------------|
G|---------------555555-444444-----------------------------5~--|
D|-222222-555555-555555-444444-222222-555555-000000000000--5~--|
A|-222222-555555-333333-222222-222222-555555-000000000000--3~--|
D|-222222-555555---------------222222-555555-000000000000------|

Outro
e|--------------------------------------------------------------------|
B|--------------------------------------------------------------------|
G|---------------------5-55-54-44-4-2-22-24-44-4-2-22-24-44-----------|
D|-2-22-22-2/5--2/5-5--5-55-54-44-4-2-22-24-44-4-2-22-24-44---------2-|
A|-2-22-22-2/5--2/5-5--3-33-32-22-2-0-00-02-22-2-0-00-02-22-2-0-----2-|
D|-2-22-22-2/5--2/5-5-------------------------------------------5-4-2-|
     .  .                .            .


************************************

| /   slide up
| \   slide down
| h   hammer-on
| p   pull-off
| ~   vibrato
| +   harmonic
| x   Mute note
| b   Bend
| pb  Pre-bend
| br  Bend release
| pbr Pre-bend release
| brb Bend release bend

************************************
Tap to rate this tab
# A B C D E F G H I J K L M N O P Q R S T U V W X Y Z