Song name
# A B C D E F G H I J K L M N O P Q R S T U V W X Y Z

Used - I Come Alive tab

------------------------------------------------------------------------------- 
                                                   I Come Alive - The Used
-------------------------------------------------------------------------------

Listen song for accurate strumming throughout the song

Tuning:Drop D

Intro
e|-------------------------------------------------|
B|-------------------------------------------------|
G|-------------------------------------------------|X4
D|----------------------------11s------------------|
A|-------------------------------------------------|
D|--000000-333333-111111111111111111111111---------|
PM  ...... ...... . . . . . . . . . . . . 

Verse
e|--------------------------------------------------------------------------|
B|------------------------------------------Second time end with just one 11|
G|-------------------------------------------and try to slide it down-to 0--|X2
D|---------------------11s--------------------------------------------------|
A|--------------------------------------------------------------------------|
D|-000000-333333-111111111111-555555-333333-888888-777777-111111111111------|
PM  ...... ...... . . . . . .  ...... ...... ...... ...... . . . . . . 

Chorus 
e|-----------------------------------------------------------------|
B|-----------------------------------------------------------------|
G|-----------------------------------------------------------------|
D|--33333333-2222-0000000000000022-33333333-2222-0000000000000000--|
A|--33333333-3333-0000000000000022-33333333-3333-0000000000000000--|
D|--33333333-2222-0000000000000022-33333333-2222-0000000000000000--|
                                ..

e|----------------------------------------------------------|
B|----------------------------------------------------------|
G|--33333333-55555555----------------55555555-33333333-5/0--|
D|--33333333-55555555-3333-2222-0000-55555555-33333333-5/0--|
A|--11111111-33333333-3333-3333-0000-33333333-11111111-3/0--|
D|--------------------3333-2222-0000------------------------|

Verse
e|-------------------------------------------------|
B|-------------------------------------------------|
G|-------------------------------------------------|X2
D|----------------------------11s------------------|
A|-------------------------------------------------|
D|--000000-333333-111111111111111111111111---------|
PM  ...... ...... . . . . . . . . . . . . 

Little Dub-step part 

Chorus 
e|-----------------------------------------------------------------|
B|-----------------------------------------------------------------|
G|-----------------------------------------------------------------|
D|--33333333-2222-0000000000000022-33333333-2222-0000000000000000--|
A|--33333333-3333-0000000000000022-33333333-3333-0000000000000000--|
D|--33333333-2222-0000000000000022-33333333-2222-0000000000000000--|
                                ..

e|----------------------------------------------------------|
B|----------------------------------------------------------|
G|--33333333-55555555----------------55555555-33333333-5/0--|
D|--33333333-55555555-3333-2222-0000-55555555-33333333-5/0--|
A|--11111111-33333333-3333-3333-0000-33333333-11111111-3/0--|
D|--------------------3333-2222-0000------------------------|

Breakdown
e|----------------------------|------------|
B|--Listen for differences of strumming----|
G|-in the 8s------------------|------------|
D|-88888888-------00000000----|--88888888--|
A|-88888888-------00000000-X4-|--88888888--|
D|-88888888-7b-p0-00000000----|--88888888--|

Bridge Cont.
e|-------------------------------------------------------------------------|
B|-------------------------------------------------------------------------|
G|-------------------------------------------------------------------------|
D|-------------------------------------------------------------------------|
A|-------------------------------------------------------------------------|
D|-00000000-33333333-1111111111111111-55555555-333333333333-222222222222---|
   ........ ........ . . . . . . . .  ........ ............ ............

e|---------------------------------------------------------------|
B|---------------------------------------------------------------|
G|---------------------------------------------------------------|
D|---------------------11s---------------------------------------|
A|---------------------------------------------------------------|
D|-000000-333333-111111111111-555555-333333-888888-777777-11/0---|
   ...... ...... . . . . . .  ...... ...... ...... ...... .  

e|---------------------------------------------|
B|---------------------------------------------|
G|---------------------------------------------|
D|-0~--3~--11~-5-5-5~--3~--8~--7~--11-11-11~---|X2
A|-0~--3~--11~-5-5-5~--3~--8~--7~--11-11-11~---|
D|-0~--3~--11~-5-5-5~--3~--8~--7~--11-11-11~---|

Chorus 
e|-------------------------------------------------------------------|
B|-------------------------------------------------------------------|
G|-------------------------------------------------------------------|
D|--3~---\\----2222-0000000000000022-33333333-2222-0000000000000000--|
A|--3~---\\----3333-0000000000000022-33333333-3333-0000000000000000--|
D|--3~---\\----2222-0000000000000022-33333333-2222-0000000000000000--|
                                  ..

e|----------------------------------------------------------|
B|----------------------------------------------------------|
G|--33333333-55555555----------------55555555-33333333-5/0--|
D|--33333333-55555555-3333-2222-0000-55555555-33333333-5/0--|
A|--11111111-33333333-3333-3333-0000-33333333-11111111-3/0--|
D|--------------------3333-2222-0000------------------------|

Breakdown
e|----------------------------|
B|--Listen for differences of strumming
G|-in the 8s------------------|
D|-88888888-------00000000----|
A|-88888888-------00000000-X4-| Figurate after this
D|-88888888-7b-p0-00000000----| its easy. Same chords just different changes

------------------------------------------------------------------------------

If you want to play extra parts on the song here are they

Intro
e|-----------------------------|
B|---18~-----17~------15~------|
G|-----------------------------|
D|-----------------------------|
A|-----------------------------|
D|-----------------------------|

Chorus
e|-----------------------------------------------------------------|
B|-----------------------------------------------------------------|
G|-1010101010101010-9999-77777777--1010101010101010-9999-77777777--|
D|--X-X-X-X-X-X-X-X-XXXX-XXXXXXXX--X-X-X-X-X-X-X-X--XXXX-XXXXXXXX--|
A|--8-8-8-8-8-8-8-8-7777-55555555--8-8-8-8-8-8-8-8--7777-55555555--|
D|-----------------------------------------------------------------|

e|-------------------------------------------------------------------|
B|-------------------------------------------------------------------|
G|-1010101010101010-1212121212121212-14141414-12121212-10101010-9999-|
D|--X-X-X-X-X-X-X-X-X-X-X-X-X-X-X-X---X-X-X-X--X-X-X-X--X-X-X-X-XXXX-|
A|--8-8-8-8-8-8-8-8-1010101010101010-12121212-10101010--8-8-8-8-7777-|
D|-------------------------------------------------------------------|
Cont.
e|----------------------------|
B|----------------------------|
G|--1010101010101010--12\-----|
D|---X-X-X-X-X-X-X-X---X------|
A|---8-8-8-8-8-8-8-8--10\-----|
D|----------------------------|


************************************

| /   slide up
| \   slide down
| h   hammer-on
| p   pull-off
| ~   vibrato
| +   harmonic
| x   Mute note
| b   Bend
| pb  Pre-bend
| br  Bend release
| pbr Pre-bend release
| brb Bend release bend

************************************
Tap to rate this tab
# A B C D E F G H I J K L M N O P Q R S T U V W X Y Z