Song name
# A B C D E F G H I J K L M N O P Q R S T U V W X Y Z

Used - The Taste Of Ink tab

Song: Taste of ink
Artist: The Used
Tuning: Drop D(BOTH GUITARS)
NOTE: The parts with "(NO DISTORTION)" means that those parts are only the parts that 
no distortion.. The othres are distorted...

GUITAR I:(RYTHM)
GUITAR II:(LEAD)

INTRO: BOTH GUITARS(NO DISTORTION)
(PLAY TWO TIMES)
|-------------------------------------------------|
|-------------------------------------------------|
|-------------------------------------------------|
|-9-9-9-9-12-12-12-12-7-7-7-7-14-14-14-14---------|
|-7-7-7-7-10-10-10-10-5-5-5-5-12-12-12-12---------|
|-7-7-7-7-10-10-10-10-5-5-5-5-12-12-12-12---------|

VERSE I: BOTH GUITARS
(PLAY TWO TIMES)
|------------------------------------------------------|
|------------------------------------------------------|
|------------------------------------------------------|
|-9-999-999-12-121212-121212-7-777-777-14-141414-141414|
|-7-777-777-10-101010-101010-5-555-555-12-121212-121214|
|-7-777-777-10-101010-101010-5-555-555-12-121212-121212|

PRE-CHORUS: BOTH GUITARS(NO DISTORTION)
(PLAY ONCE)
|--------------------------------------|
|--------------------------------------|
|--------------------------------------|
|----1212121212121212------------------|
|----1010101010101010------------------|
|--------------------------------------|

CHORUS: BOTH GUITARS
(PLAY TWO TIMES)
|------------------------------------------------------------------------|
|------------------------------------------------------------------------|
|------------------------------------------------------------------------|
|5555555555555555-0000000000000000-7777777777777777-9-1010101010101010---|
|5555555555555555-0000000000000000-7777777777777777-9-1010101010101010---|
|5555555555555555-0000000000000000-7777777777777777-9-1010101010101010---|

THEN,(NO DISTORTION)
(PLAY ONCE)
|-------------------------------------------------|
|-------------------------------------------------|
|-------------------------------------------------|
|-9-9-9-9-12-12-12-12-7-7-7-7-14-14-14-14---------|
|-7-7-7-7-10-10-10-10-5-5-5-5-12-12-12-12---------|
|-7-7-7-7-10-10-10-10-5-5-5-5-12-12-12-12---------|

VERSE II:
GUITAR I:
(PLAY TWO TIMES)
|------------------------------------------------------|
|------------------------------------------------------|
|------------------------------------------------------|
|-9-999-999-12-121212-121212-7-777-777-14-141414-141414|
|-7-777-777-10-101010-101010-5-555-555-12-121212-121214|
|-7-777-777-10-101010-101010-5-555-555-12-121212-121212|

GUITAR II:
(ENTERS THE SECOND TIME)
|----------------------------------------------------|
|------------------------------------------11/-------|
|-----11-12-11-9~----11-12-12~------11-12--x-/-------|
|--12-------------12-------------12--------9-/-------|
|----------------------------------------------------|
|----------------------------------------------------|
(CONTINUED AS PRE-CHORUS)

PRE-CHORUS:
GUITAR I:(PLAY ONCE)
|--------------------------------------|
|--------------------------------------|
|--------------------------------------|
|----1212121212121212------------------|
|----1010101010101010------------------|
|--------------------------------------|

GUITAR II:
|-----------------------------------------|
|-----------------------------------------|
|14-14-14-14-14-14-14-14-16-16-16-16-16-16|
|-X--X--X--X--X--X--X--X--X--X--X--X--X--X|
|12-12-12-12-12-12-12-12-14-14-14-14-14-14|
|-----------------------------------------|

CHORUS: BOTH GUITARS
(PLAY TWO TIMES)
|------------------------------------------------------------------------|
|------------------------------------------------------------------------|
|------------------------------------------------------------------------|
|5555555555555555-0000000000000000-7777777777777777-9-1010101010101010---|
|5555555555555555-0000000000000000-7777777777777777-9-1010101010101010---|
|5555555555555555-0000000000000000-7777777777777777-9-1010101010101010---|

BRIDGE:

GUITAR II: PLAY FOUR TIMES(NO DISTORTION)
|----------------------------------------------|
|----------------------------------------------|
|---------7-----7------------------------------|
|-------9-----9------9-----10-12---------------|
|----10-----9-----12---10--------10------------|
|----------------------------------------------|

GUITAR I: ENTERS ON THE SECOND TIME
|------------------------------------------------------------------------|
|------------------------------------------------------------------------|
|1212121212121212-1414141414141414-1212121212121212-1717171717171717-----|
|-X-X-X-X-X-X-X-X--X-X-X-X-X-X-X-X--X-X-X-X-X-X-X-X--X-X-X-X-X-X-X-X-----|
|1010101010101010-1212121212121212-1010101010101010-1515151515151515-----|
|------------------------------------------------------------------------|
(CONTINUED)
|-----------------------------|
|-----------------------------|
|1616161616161616-------------|
|-X-X-X-X-X-X-X-X-------------|
|1414141414141414-------------|
|-----------------------------|

VERSE III:
GUITAR I:
(PLAY TWO TIMES)
|------------------------------------------------------|
|------------------------------------------------------|
|------------------------------------------------------|
|-9-999-999-12-121212-121212-7-777-777-14-141414-141414|
|-7-777-777-10-101010-101010-5-555-555-12-121212-121214|
|-7-777-777-10-101010-101010-5-555-555-12-121212-121212|

GUITAR II:
(ENTERS THE SECOND TIME)
|----------------------------------------------------|
|------------------------------------------11/-------|
|-----11-12-11-9~----11-12-12~------11-12--x-/-------|
|--12-------------12-------------12--------9-/-------|
|----------------------------------------------------|
|----------------------------------------------------|
(CONTINUED AS PRE-CHORUS)

PRE-CHORUS:
GUITAR I:
|--------------------------------------|
|--------------------------------------|
|--------------------------------------|
|----1212121212121212------------------|
|----1010101010101010------------------|
|--------------------------------------|

GUITAR II:
|-----------------------------------------|
|-----------------------------------------|
|14-14-14-14-14-14-14-14-16-16-16-16-16-16|
|-X--X--X--X--X--X--X--X--X--X--X--X--X--X|
|12-12-12-12-12-12-12-12-14-14-14-14-14-14|
|-----------------------------------------|

CHORUS:
BOTH GUITARS
(PLAY TWO TIMES)
|------------------------------------------------------------------------|
|------------------------------------------------------------------------|
|------------------------------------------------------------------------|
|5555555555555555-0000000000000000-7777777777777777-9-1010101010101010---|
|5555555555555555-0000000000000000-7777777777777777-9-1010101010101010---|
|5555555555555555-0000000000000000-7777777777777777-9-1010101010101010---|

OUTRO:
GUITAR I:(PLAY THIS THREE TIMES)
|------------------------------------------------------|
|------------------------------------------------------|
|------------------------------------------------------|
|-9-999-999-12-121212-121212-7-777-777-14-141414-141414|
|-7-777-777-10-101010-101010-5-555-555-12-121212-121214|
|-7-777-777-10-101010-101010-5-555-555-12-121212-121212|

GUITAR II:(PLAY ONCE)
|----------------------------------------------------|
|----------------------------------------------------|
|-----11-12-9~----11-12-11-12~-----11-12-11----------|
|--12----------12---------------12----------0~-------|
|----------------------------------------------------|
|----------------------------------------------------|
(CONTINUED)
|----------------------------------------------------|
|----------------------------------------------------|
|-------------------------------11-12-9----11-12-12~-|
|----------------------------12---------12-----------|
|12-12-12-12-12-12-12-12-12~-------------------------|
|----------------------------------------------------|
(CONTINUED)
|----------------------------------------------------|
|---------------0------------------------------------|
|-----11-12-11~--------------------------------------|
|--12------------------------------------------------|
|-----------------11-12-12-12-12-12-12-12~-----------|
|----------------------------------------------------|
(CONTINUED)
|----------------------------------------------------|
|------------------------------------------10--------|
|-----11-12-9~----11-12-13~----11-13-11/13----13-----|
|--12----------12-----------12-----------------------|
|----------------------------------------------------|
|----------------------------------------------------|
(CONTINUED)
|----------------------------------------------------|
|-10-10-10-10-10-10~--/           \------------------|
|-13-13-13-13-13-13~-/!!FADES OUT!!\-----------------|
|--------------------\             /-----------------|
|---------------------\           /------------------|
|----------------------------------------------------|
Tap to rate this tab
# A B C D E F G H I J K L M N O P Q R S T U V W X Y Z