Song name
# A B C D E F G H I J K L M N O P Q R S T U V W X Y Z

Used - Poetic Tragedy tab

Tabbed by: Free2Live

Tuning: Standard

Intro
e|-------------------------------------|
B|------7-------7-------7------5-7-----|
G|-------------------------------------|
D|----------------0h5-5---0h5----------| x2
A|--0h5---0h5-5------------------------|
E|-------------------------------------|

Verse 1
e|---------------------------------------------------------------|
B|-----7-------7-------7-----7-----7-------7-------7--------5-7--|
G|---------------------------------------------------------------|
D|----------------0h5-5---0h5-----------------0h5-5-----0h5------|
A|--0h5---0h5-5---------------0h5-5---0h5-5----------------------|
E|---------------------------------------------------------------|
                                                                   \
Continued                                                        Repeat Once
e|------------------------------------------------------------|   /
B|-----7------7-------7-----7------7------7------7--------7---|
G|------------------------------------------------------------|
D|---------------0h5-5---0h5----------------0h5-5---0h5-------|
A|--0h5--0h5-5---------------0h5-5---0h5-5--------------------|
E|------------------------------------------------------------|

Chorus
e|-------------------------------------------------------------------------|
B|--3-3-3-3-3-3-3---------------3-3-3-3-3-3-3-3-3--------------------------|
G|--2-2-2-2-2-2-2---------------2-2-2-2-2-2-2-2-2-------------7-7-9-9-9----|
D|--0-0-0-0-0-0-0-2-2-2-2-2-2-2-0-0-0-0-0-0-0-0-0-2-2-2-2-2-2-x-x-x-x-x----|
A|--0-0-0-0-0-0-0-2-2-2-2-2-2-2-0-0-0-0-0-0-0-0-0-2-2-2-2-2-2-5-5-7-7-7----|
E|--0-0-0-0-0-0-0-2-2-2-2-2-2-2-0-0-0-0-0-0-0-0-0-2-2-2-2-2-2--------------|

e|---------------------------------------------------|
B|--3-3-3-3-3-3-3---------------3-3-3-3-3-3-3-3-3----|
G|--2-2-2-2-2-2-2---------------2-2-2-2-2-2-2-2-2----|
D|--0-0-0-0-0-0-0-2-2-2-2-2-2-2-0-0-0-0-0-0-0-0-0-2~-|
A|--0-0-0-0-0-0-0-2-2-2-2-2-2-2-0-0-0-0-0-0-0-0-0-2~-|
E|--0-0-0-0-0-0-0-2-2-2-2-2-2-2-0-0-0-0-0-0-0-0-0-2~-|

Verse 2
e|------------------------------------------------------------|   
B|-----7------7-------7-----7------7------7------7--------5---|
G|------------------------------------------------------------|
D|---------------0h5-5---0h5----------------0h5-5---0h5-------|x2
A|--0h5--0h5-5---------------0h5-5---0h5-5--------------------|
E|------------------------------------------------------------|

CHORUS!

Bridge
e|-------------------------------------------------------------------------|
B|-------------------------------------------------------------------------|
G|-11-11-11-11-11-11-12-12-12-12-12-12-14-14-14-14-14-14-12-12-12-12-12-12-|
D|--x--x--x--x--x--x--x--x--x--x--x--x--x--x--x--x--x--x--x--x--x--x--x--x-|
A|--9--9--9--9--9--9-10-10-10-10-10-10-12-12-12-12-12-12-10-10-10-10-10-10-|
E|-------------------------------------------------------------------------|

e|-------------------------------------------------------------------------|
B|-------------------------------------------------------------------------|
G|-11-11-11-11-11-11-12-12-12-12-12-12-16-16-16-16-16-16-12-12-12-12-12-12-|
D|--x--x--x--x--x--x--x--x--x--x--x--x--x--x--x--x--x--x--x--x--x--x--x--x-|
A|--9--9--9--9--9--9-10-10-10-10-10-10-14-14-14-14-14-14-10-10-10-10-10-10-|
E|-------------------------------------------------------------------------|

(Screaming bit)
e|---------------------------------------------------|
B|--3~--------------------------3~-------------------|
G|--2~--------------------------2~-------------------|
D|--0~------------2~------------0~----------------2~-| Repeat Once.
A|--0~------------2~------------0~----------------2~-|
E|--0~------------2~------------0~----------------2~-|
         

| /  slide up
| \  slide down
| h  hammer-on
| p  pull-off
| ~  vibrato
| +  harmonic
| x  Mute note
Tap to rate this tab
 
# A B C D E F G H I J K L M N O P Q R S T U V W X Y Z