Song name
# A B C D E F G H I J K L M N O P Q R S T U V W X Y Z

Used - Cry tab

==========================================
               Cry - Used
==========================================
Drop C# - C# G# C# F# A# D#
This is the newest single from their upcoming album;
Imaginary Enemy, which comes out on my birthday! YEW!


Intro/Riff A                                              x4
-10-10-x-x-10-10-x-x-8-8-x-x-8-8-x-x-12-13-12-13---------\\-|
------------------------------------------------------------|
------------------------------------------------------------|
------------------------------------------------------------|
------------------------------------------------------------|
------------------------------------------------------------|

Intro Chorus (stronger on last 4 repeats)
Lead                                                      x8
-10-10-x-x-10-10-x-x-8-8-x-x-8-8-x-x-12-13-12-13---------\\-|
------------------------------------------------------------|
------------------------------------------------------------|
------------------------------------------------------------|
------------------------------------------------------------|
------------------------------------------------------------|
Rhythm                                                    x2
-5------------8------------5--------------------------------|
-6------------11-----------8--------------------------------|
-7-(x8)-------10-----------7--------------------------------|
-7------------8--(x8)------5--(x16)-------------------------|
-5------------8------------5--------------------------------|
--------------8------------5--------------------------------|

Verse                                                     x8
-10-10-x-x-10-10-x-x-8-8-x-x-8-8-x-x-12-13-12-13---------\\-|
------------------------------------------------------------|
------------------------------------------------------------|
------------------------------------------------------------|
------------------------------------------------------------|
------------------------------------------------------------|

Pre-Chorus
---------------------------|--------------------------------|
---------------------------|-P.M in the background----------|
-7----5-7------7-----5-7~~-|-7-7-7-7-7-7-7-7-7-7...---------|
-7----5-7------7-----5-7~~-|--------------------------------|
-5----3-5------5-----3-5~~-|--------------------------------|
-0------0------0-------0~~-|--------------------------------|
                             * * * * * * * * * * 

Play Chorus x2
With no Lead/Just rhythm


Verse 2                                                  x12
-10-10-x-x-10-10-x-x-8-8-x-x-8-8-x-x-12-13-12-13---------\\-|
------------------------------------------------------------|
------------------------------------------------------------|
------------------------------------------------------------|
------------------------------------------------------------|
------------------------------------------------------------|
In this verse, background harmony plays this randomly
-5-5-5--|-5-5-5-|-8--8--8--|--------------------------------|
-6-6-6--|-8-8-8-|-11-11-11-|--------------------------------|
-7-7-7--|-7-7-7-|-10-10-10-|--------------------------------|
--------|-------|----------|--------------------------------|
--------|-------|----------|--------------------------------|
--------|-------|----------|--------------------------------|


Play Pre-Chorus


Play Chorus x4
With no Lead again/Just rhythm
Big open 000 chord at the end


Bridge
---------------------------------------------|keep repeating|
---------------------------------------------|-this---------|
-7-(x8)-10(x8)-5(x16)--7-(x8)----------------|-10-10--------|
-(0)~~~~~~~~~~~~~~~~~~~~~~~~~~~~~~~~~~~~~~~~~|--------------|
-(0)~~~~~~~~~~~~~~~~~~~~~~~~~~~~~~~~~~~~~~~~-|--------------|
-(0)~~~~~~~~~~~~~~~~~~~~~~~~~~~~~~~~~~~~~~~~~|--------------|
                                           Crescendo


Breakdown
---------------------5~-5~---------------------------555~---|
-3~------------------6~-6~---------------------pause-666~---|
-2~------------------7~-7~---------------------------777~---|
-0~---------0~-0~----7~-7~--0~---------0~0~----------777~---|
-0~---------0~-0~--0-0~-0~--0~---------0~0~--x-------000~---|
-0~-2b-2br~-0~-0~--0--------0~-2b-2br~-0~0---x--------------|
                   *                         

Play Chorus x4
Lead comes on last two repeats..


Done!!! thats it
please rate and comment :3
Tap to rate this tab
# A B C D E F G H I J K L M N O P Q R S T U V W X Y Z