Song name
# A B C D E F G H I J K L M N O P Q R S T U V W X Y Z

Used - The Ocean Of The Sky tab

=====================================================
            Used - The Ocean of the Sky
=====================================================
Drop D - D A D G B E
Guitar is Very low toned and Bass.
Also note; there are alot of things different from the last section 
in which this tab is longer and verses and choruses are different from one another

..
------------------------|
------------------------|
------------------------|
------------------------|
------------------------|
-5~~-feedback--0x-0~~~--|

Intro (main riff)
--------------------------------------------------------------------------------------------|
--------------------------------------------------------------------------------------------|
--------------------------------------------------------------------------------------------|
--------------------------------------------------------------------------------------------|
------5-6-7-5--------------------------------------5-6-7-5----------------------------------|
--9-9---------9-9-12\9\7\5--4-4---4x-4--4p0-2~-0-0---------9-9-12\9\7\5--4-4---4x-4-4p0-2~--|


Verse 1 (note drones in the background)
--------------------------------------------------------------------------------------------|
--------------------------------------------------------------------------------------------|
--------------------------------------------------------------------------------------------|
--------------------------------------------------------------------------------------------| x4
--------------------------------------------------------------------------------------------|
--0~0~-0~----4~4~-4x-4--4p0-2~---------------------|-keep playing 4 on last repeat---\\\----|


Chorus: Lead                               x2                                              x2
-5--5--5--5--5--5--5--5------5~----5~-------|-----------------------------------------------|
-10-10-10-10-10-10-10-10--9~----9~----9~-7~-|-----------------------------------------------|
--------------------------------------------|-7-7-7-7-7-7-7-7-6-6-6-6-6-6-6-6---------------|
--------------------------------------------|-----------------------------------------------|
--------------------------------------------|-----------------------------------------------|
--------------------------------------------|-----------------------------------------------|
Chorus: Rhythm                             x2 * * * * * * * * * * * * * * * *              x2
--------------------------------------------|-----------------------------------------------|
--------------------------------------------|------------------single 7 on 2nd repeat-------|
------------4-------------------------------|-----------------------------------------------|
--0---------4-(x4)----4---------------------|-5-5-5-5-5-5-5-55-7-7-7-7-7-7-7-7--------------|
--0-(x4)----2---------4-(x8)----------------|-5-5-5-5-5-5-5-55-7-7-7-7-7-7-7-7--------------|
--0-------------------4---------------------|-5-5-5-5-5-5-5-55-7-7-7-7-7-7-7-7--------------|
                                              * * * * * * * ** * * * * * * * *


Post chorus/verse 2 (alot of harmonics)
Starts after 2 bars                                                                        x2
--------------------------------------------------------------------------------------------|
----------------------(12^)-----------------------------------------------------------------|
------------------------------------------------------------------------------------(12^)---|
------------------------------------------------------------------------(9\)----------------|
------5-6-7-5--------------------------------------5-6-7-5----------------------------------|
--0-0---------9-9-12\9\7\5--4-4---4x-4--4~~----0-0---------9-9-12\9\7\5--4-4---4x-4-4~~-----|
"For the Blind man that must journey into hell"
--------------------------------------------------------------------------------------------|
--------------------------------------------------------------------------------------------|
--------------------------------------------------------------------------------------------|
------------------------------------------------------------(going into chorus 2)-----------|
-----------2-2-2-----------------------2-2-2------------------------------------------------|
---0-0--0~-------4-4-4x-4-4-4---0-0--0~------4-4-4-4-4-4-\\---------------------------------|
Harmony Guitar in Verse 2                                                                  x4
--10~~--7~~---9~----------------------------------------------------------------------------|
--12~~--7~~---10~---------------------------------------------------------------------------|
--------------------------------------------------------------------------------------------|
--------------------------------------------------------------------------------------------|
--------------------------------------------------------------------------------------------|
--------------------------------------------------------------------------------------------|


Chorus 2: Lead                             x2                                              x2
-5--5--5--5--5--5--5--5------5~----5~-------|-----------------------------------------------|
-10-10-10-10-10-10-10-10--9~----9~----9~-7~-|-----------------------------------------------|
--------------------------------------------|-7-7-7-7-7-7-7-7-6-6-6-6-6-6-6-6---------------|
--------------------------------------------|-----------------------------------------------|
--------------------------------------------|-----------------------------------------------|
--------------------------------------------|-----------------------------------------------|
Chorus 2: Rhythm                           x2 * * * * * * * * * * * * * * * *              x2
--------------------------------------------|-----------------------------------------------|
--------------------------------------------|------------------single 7 on 2nd repeat-------|
------------4-------------------------------|-----------------------------------------------|
--0---------x-(x4)----4---------------------|------------------7-7-7-7-7-7-7-7--------------|
--0-(x4)----2---------4-(x8)----------------|-1717171717171717-7-7-7-7-7-7-7-7--------------|
--0-------------------4---------------------|-1717171717171717-7-7-7-7-7-7-7-7--------------|
                                              * * * * * * * ** * * * * * * * *
                                               seventeens
Bridge                                                                                     x4
--------------------------------------------------------------------------------------------|
--------------------------------------------------------------------------------------------|
--------------------------------------------------------------------------------------------|
--------------------------------------------------------------------------------------------|
--------------------------------------------------------------------------------------------|
--0-(0)~~----9-(9)~~--4-(4)~~~~-2\\-------|-4-4-4-4-4-4-4\\---on 4th repeat-----------------|


Chorus 3: Lead                             x2                                              x2
-5--5--5--5--5--5--5--5------5~----5~-------|-----------------------------------------------|
-10-10-10-10-10-10-10-10--9~----9~----9~-7~-|-----------------------------------------------|
--------------------------------------------|-7-7-7-7-7-7-7-7-6-6-6-6-6-6-6-6----7~~--------|
--------------------------------------------|-----------------------------------------------|
--------------------------------------------|-----------------------------------------------|
--------------------------------------------|-----------------------------------------------|
Chorus 3: Rhythm                           x2 * * * * * * * * * * * * * * * *              x2
--------------------------------------------|-----------------------------------------------|
--------------------------------------------|-----------------------------------------------|
------------4-------------------------------|-----------------------------------------------|
--0---------x-(x4)----4---------------------|------------------7-7-7-7-7-7-7-7---0~~~-------|
--0-(x4)----2---------4-(x8)----------------|-1717171717171717\7-7-7-7-7-7-7-7---0~~~-------|
--0-------------------4---------------------|-1717171717171717\7-7-7-7-7-7-7-7---0~~--------|


Well yeah, its weird to play but that's the used
weird sounds errywhere ;|
Anywho thats it
Tap to rate this tab
# A B C D E F G H I J K L M N O P Q R S T U V W X Y Z