Song name
# A B C D E F G H I J K L M N O P Q R S T U V W X Y Z

Used - Say Days Ago tab

Intro:
E------------------------------------------------------------------|
B--------5555*--------55555*--------55555*--------55555*-----------|
G--5-5-5*-------------55555*--------55555*--------55555*-----------|
D-------------00000000------00000000------00000000------00000000-0-|
A-------------00000000------00000000------00000000------00000000-0-|
D-------------00000000------00000000------00000000------00000000-0-|
 Comments: All the 5's are natural harmonics

E------------------------------------------------------------------|
B----7----7--7---7--------------------7----------------------------|
G----7----7--7---7-(x4)Leave-out-last-7-to-sound-better-on-4th-time|
D--00--000--0--00--------------------------------------------------|
A--00--000--0--00--------------------------------------------------|
D--00--000--0--00--------------------------------------------------|
 Comments: "To Sound Better" just means to be more accurate, Played Fast

Preverse:
E------------------------------------------------------------------|
B------------------------------------------------------------------|
G--5*-(x26)------then--5*--(x8)------------------------------------|
D---------------------0--------------------------------------------|
A------------------------------------------------------------------|
D------------------------------------------------------------------|
 Comments: that is a ruff estimate of the natural harmonics...the 5* alone
           should be played a little more...listen to the song to find out.

Verse:
E------------------------------------------------------------------|
B------------------------------------------------------------------|
G--9-----11-------9------12------9------14------9------16~---------|
D--9-(x8)-x-(x8)--9-(x8)--x-(x8)-9-(x8)--x-(x8)-9-(x8)--x~---------|
A--7------9-------7------10------7------12------7------14~---------|
D------------------------------------------------------------------|
 Comments: Those are elevens, twelves, fourteens and sixteens.

Chorus:
E------------------------------------------------------------------|
B--12-15-12-13----12-12-12-----------------------------------------|
G--------------14--------------------------------------------------|
D--------------------------14-14-14-14-----(x4)--------------------|
A------------------------------------------------------------------|
D------------------------------------------------------------------|

Bridge:
E------------------------------------------------------------------|
B------------------------------------------------------------------|
G--9-------7-------5-------4---------------------------------------|
D--9-(x16)-7-(x16)-5-(x16)-4-(x16)---------------------------------|
A--7-------5-------3-------2---------------------------------------|
D------------------------------------------------------------------|

E------------------------------------------------------------------|
B---------7--7---7------------------7--7---7-----------------------|
G---------7--7---7------------------7--7---7-----------------------|
D-drum-000--0--00------drum------000--0--00------------------------|
A------000--0--00----------------000--0--00------------------------|
D------000--0--00----------------000--0--00------------------------|

back to PreVerse, then Verse, then Chorus, then Bridge

E------------------------------------------------------------------|
B------------------------------------------------------------------|
G--9~~~~~9----9-9-9~~~~~~9~~~~~~9-------9-9-9----------------------|
D--9~~~~~9----9-9-9~~~~~~9~~~~~~9-pause-9-9-9----------------------|
A--7~~~~~7----7-7-7~~~~~~7~~~~~~7-------7-7-7----------------------|
D------------------------------------------------------------------|
 Comments: This would be hard just to read so listen to the song to get the
           exact timings perfect.

!!Immediately!! after the last 3 power chords return to Chorus then Bridge(Bridge is 
twice)

Outtro:
E------------------------------------------------------------------|
B------------------------------------------------------------------|
G--9-9-9~~~~~~~~~~~~~~~~~~~~~~~~~~~~~~~~~~~~~~~~~~~~~~~~~~~~~~~~~~~|
D--9-9-9~~~~~~~~~~~~~~~~~~~~~~~~~~~~~~~~~~~~~~~~~~~~~~~~~~~~~~~~~~~|
A--7-7-7~~~~~~~~~~~~~~~~~~~~~~~~~~~~~~~~~~~~~~~~~~~~~~~~~~~~~~~~~~~|
E------------------------------------------------------------------|

* = Natural Harmonics (Rest your finger over the fret marker and dont push down on the string)
~ = Ring Out / Let Ring

Thats it!! ill go ahead and say thats for the comments/ratings/constructive critcism.

This song was tabbed only by the person who has posted this tab. This is only an 
of the song and everyone is encouraged to by the official tab books for their favorite artists.
Tap to rate this tab
# A B C D E F G H I J K L M N O P Q R S T U V W X Y Z