Song name
# A B C D E F G H I J K L M N O P Q R S T U V W X Y Z

Used - Light With A Sharpened Edge tab

The Used
Light With A Sharpened Edge
Guitar Tab

Tabbed By Rian_sigit
Email rian_sigit@yahoo.co.id


Standard tuning


Intro (played Harmonicly)
e|-----------------------------------------------------|
b|-----------------------------------------------------|
g|-----------------------------------------------------|
d|-5-5-5-5---4-------5---4-5-5-5-5-5-5-----------------|
a|---------3---3-3-3---3---4-4-4-4-4-4---------5-5-----|
e|-------------------------------------3-3-3-3---------|
   . . . . . . . . . . . . . . . . . . . . . . . .

e|-----------------------------------------------------|
b|-----------------------------------------------------|
g|-----------------------------------------------------|
d|-5-5-5-5---4-------5---4---5---5---5-------3---3-----|
a|---------3---3-3-3---3---4---4---4-------------------|
e|-------------------------------------3-3-3---3---3---|
   . . . . . . . . . . . . . . . . . . . . . . . . .

verse
e|------2-----2-----0-----0-----0-----0-----3-----3----|
b|----3-----3-----3-----3-----2-----2-----3-----3------|
g|--2-----2-----2-----2-----2-----2-----2-----2--------|
d|-----------------------------------------------------|
a|-----------------------------------------------------|
e|-----------------------------------------------------|

e|------2-----2-----0-----0-----0-----0-----0-----0----|
b|----3-----3-----3-----3-----2-----2-----3-----3------|
g|--2-----2-----2-----2-----2-----2-----2-----2--------|
d|-----------------------------------------------------|
a|-----------------------------------------------------|
e|-----------------------------------------------------|

e|------2-----2-----0-----0-----0-----0-----3-----3----|
b|----3-----3-----3-----3-----2-----2-----3-----3------|
g|--2-----2-----2-----2-----2-----2-----2-----2--------|
d|-----------------------------------------------------|
a|-----------------------------------------------------|
e|-----------------------------------------------------|

e|------2-----2-----0-----0-----0-----0-----0-----0----|
b|----3-----3-----3-----3-----2-----2-----3-----3------|
g|--2-----2-----2-----2-----2-----2-----2-----2--------|
d|-----------------------------------------------------|
a|-----------------------------------------------------|
e|-----------------------------------------------------|

e|------0-----0------0-----0---------------------------|
b|----3-----3------3-----3-----------------------------|
g|--2-----2------2-----2-------------------------------|
d|-----------------------------------------------------|
a|-----------------------------------------------------|
e|-----------------------------------------------------|

Chorus 1 (played harmonicly)
e|-----------------------------------------------------|
b|-----------------------------------------------------|
g|-----------------------------------------------------| 2x
d|--5-5-5-5-5-5---------------5-3---5-3---5-3---5-3----|
a|--------------4-4-4-4-4-4-4-----4-----4-----4--------|
e|-----------------------------------------------------|
    . . . . . . . . . . . . . . . . . . . . . . . .


Chorus 2

e|-----------------------------------------------------|
b|-----------------------------------------------------|
g|-----------------------------------------------------|
d|--7-7-7-7-7-7-4-4-4-4-4-4-5-5-5-5-5-5-5-5-5-5-7-7----|
a|--5-5-5-5-5-5-4-4-4-4-4-4-5-5-5-5-5-5-5-5-5-5-7-7----|
e|--5-5-5-5-5-5-2-2-2-2-2-2-3-3-3-3-3-3-3-3-3-3-5-5----|

e|-----------------------------------------------------|
b|-----------------------------------------------------|
g|-----------------------------------------------------|
d|--7-7-7-7-7-7-4-4-4-4-4-4-5-5-5-5-5-5-5-5-5-5-5-5----|
a|--5-5-5-5-5-5-4-4-4-4-4-4-5-5-5-5-5-5-5-5-5-5-5-5----|
e|--5-5-5-5-5-5-2-2-2-2-2-2-3-3-3-3-3-3-3-3-3-3-3-3----|


Bridge
e|-----------------------------------------------------|
b|-----------------------------------------------------|
g|-----------------------------------------------------|
d|--9-9-9-9--8-8-8-8--7-7-7-7-7-7-7-7-7-7-7-7----------|
a|--9-9-9-9--8-8-8-8--5-5-5-5-5-7-7-7-5-5-5-5----------|
e|--7-7-7-7--6-6-6-6--5-5-5-5-5-5-5-5-5-5-5-5----------|

e|-----------------------------------------------------|
b|-----------------------------------------------------|
g|--------------------7-7-7-9-9-9-12-12-12-12-12-12----|
d|--9-9-9-9--8-8-8-8--x-x-x-x-x-x-x--x--x--x--x--x-----|
a|--9-9-9-9--8-8-8-8--5-5-5-7-7-7-9--9--9--9--9--9-----|
e|--7-7-7-7--6-6-6-6-----------------------------------|


e|-----------------------------------------------------|
b|-----------------------------------------------------|
g|-----------------------------------------------------|
d|--9-9-9-9--8-8-8-8--7-7-7-7-7-7-7-7-7-7-7-7----------|
a|--9-9-9-9--8-8-8-8--5-5-5-5-5-7-7-7-5-5-5-5----------|
e|--7-7-7-7--6-6-6-6--5-5-5-5-5-5-5-5-5-5-5-5----------|

e|-----------------------------------------------------|
b|-----------------------------------------------------|
g|-----------------------------------------------------|
d|--9-9-9-9--8-8-8-8--7-7-7-7-7-7-7-7-7-7-7-7----------|
a|--9-9-9-9--8-8-8-8--5-5-5-5-5-7-7-7-5-5-5-5----------|
e|--7-7-7-7--6-6-6-6--5-5-5-5-5-5-5-5-5-5-5-5----------|
                 (pm) o o o o o o o o o o o o

e|-----------------------------------------------------|
b|--10-10-10-10-10-10----------------------------------|
g|--x--x--x--x--x--x-----------------------------------|
d|--7--7--7--7--7--7-----------------------------------|
a|-----------------------------------------------------|
e|-----------------------------------------------------|

Solo
e|-----------------------------------------------------|
b|-----------------------------------------------------|
g|-----------------------------------------------------|
d|-5-5-5-5---4-------5---4-5-5-5-5-5-5-----------------|
a|---------3---3-3-3---3---4-4-4-4-4-4---------5-5-----|
e|-------------------------------------3-3-3-3---------|
   . . . . . . . . . . . . . . . . . . . . . . . .

e|-----------------------------------------------------|
b|-----------------------------------------------------|
g|-----------------------------------------------------|
d|-5-5-5-5---4-------5---4---5---5---5-------3---3-4---|
a|---------3---3-3-3---3---4---4---4-------------------|
e|-------------------------------------3-3-3---3-------|
   . . . . . . . . . . . . . . . . . . . . . . . . .

e|--14-14------------14-14-------------12-12----------------10-10-10-|
b|--------12---12-12-------12-12-12-12-------12-12-10/12-12----------|
g|-------------------------------------------------------------------|
d|-------------------------------------------------------------------|
a|-------------------------------------------------------------------|
e|-------------------------------------------------------------------|


e|--10----14-14----12-12----14-14------------14-14----12-12----12-12-|
b|-----12-------12-------12-------12---12-12-------12-------12-------|
g|-------------------------------------------------------------------|
d|-------------------------------------------------------------------|
a|-------------------------------------------------------------------|
e|-------------------------------------------------------------------|

e|----14-14-14-14-14-14-15-15-15-15-15-15-17-17-17-17-17-17-17-------|
b|-12----------------------------------------------------------------|
g|-------------------------------------------------------------------|
d|-------------------------------------------------------------------|
a|-------------------------------------------------------------------|
e|-------------------------------------------------------------------|


Outro (played Harmonicly)
e|-----------------------------------------------------|
b|-----------------------------------------------------|
g|-----------------------------------------------------|
d|-5-5-5-5---4-------5---4-5-5-5-5-5-5-----------------|
a|---------3---3-3-3---3---4-4-4-4-4-4---------5-5-----|
e|-------------------------------------3-3-3-3---------|
   . . . . . . . . . . . . . . . . . . . . . . . .

e|-----------------------------------------------------|
b|-----------------------------------------------------|
g|-----------------------------------------------------|
d|-5-5-5-5---4-------5---4-5-5-5-5-5-5-----------------|
a|---------3---3-3-3---3---4-4-4-4-4-4---------5-5-----|
e|-------------------------------------3-3-3-3---------|
   . . . . . . . . . . . . . . . . . . . . . . . .

e|-----------------------------------------------------|
b|-----------------------------------------------------|
g|-----------------------------------------------------|
d|--------3---3----------------------------------------|
a|-----------------------------------------------------|
e|--3-3-3---3---3-3-3-3-3-3----------------------------|
    . . . . . . . . . . . .


Thats it, it's 100 % correct (i hope) ;)
Tap to rate this tab
# A B C D E F G H I J K L M N O P Q R S T U V W X Y Z