Song name
# A B C D E F G H I J K L M N O P Q R S T U V W X Y Z

Used - Im A Fake tab

Standard Tuning.

Intro:

(0:00-27 little guitar effects, then 0:27 really slow pick slide making an aww noise until 0:32)

Guitar Part-- 0:32
----------------------------------------------------------------------------|
----------------------------------------------------------------------------|
9-9-9-9-9-9-9-9-/-12-12-12-12-12-12-12-12-5-5-5-5-5-5-5-5-/-7-7-7-7-7-7-7-7-|
9-9-9-9-9-9-9-9-/-12-12-12-12-12-12-12-12-5-5-5-5-5-5-5-5-/-7-7-7-7-7-7-7-7-|
7-7-7-7-7-7-7-7-/-10-10-10-10-10-10-10-10-3-3-3-3-3-3-3-3-/-5-5-5-5-5-5-5-5-|
----------------------------------------------------------------------------|

---------------------------------------------------------------------------|
---------------------------------------------------------------------------|
9-9-9-9-9-9-9-9-/-12-12-12-12-12-12-12-12-5-5-5-5-5-5-5-5-5-5-5-5-5-5-5-5--|
9-9-9-9-9-9-9-9-/-12-12-12-12-12-12-12-12-5-5-5-5-5-5-5-5-5-5-5-5-5-5-5-5--|
7-7-7-7-7-7-7-7-/-10-10-10-10-10-10-10-10-3-3-3-3-3-3-3-3-3-3-3-3-3-3-3-3--|
---------------------------------------------------------------------------|

Intro Part 2 -- Heavier And Louder 0:42
---------------------------------------------------------------------------|
---------------------------------------------------------------------------|
9-9-9-9-9-9-9-9-12-12-12-12-12-12-12-12-5-5-5-5-5-5-5-5-5-5-5-5-5-5-5-5----|
9-9-9-9-9-9-9-9-12-12-12-12-12-12-12-12-5-5-5-5-5-5-5-5-5-5-5-5-5-5-5-5----|
7-7-7-7-7-7-7-7-10-10-10-10-10-10-10-10-3-3-3-3-3-3-3-3-3-3-3-3-3-3-3-3----|
7-7-7-7-7-7-7-7-10-10-10-10-10-10-10-10-3-3-3-3-3-3-3-3-3-3-3-3-3-3-3-3----|

---------------------------------------------------------------------------|
---------------------------------------------------------------------------|
9-9-9-9-9-9-9-9-12-12-12-12-12-12-12-12-5-5-5-5-5-5-5-5-5-5-5-5-5-5-5-5----|
9-9-9-9-9-9-9-9-12-12-12-12-12-12-12-12-5-5-5-5-5-5-5-5-5-5-5-5-5-5-5-5----|
7-7-7-7-7-7-7-7-10-10-10-10-10-10-10-10-3-3-3-3-3-3-3-3-3-3-3-3-3-3-3-3----|
7-7-7-7-7-7-7-7-10-10-10-10-10-10-10-10-3-3-3-3-3-3-3-3-3-3-3-3-3-3-3-3----|

Verse 0:54

"Look at me You can tell by the way i move and do my hair"

---------------------------------------------------------------------------|
---------------------------------------------------------------------------|
9---------------12----------------------5----------------------------------|
9---------------12----------------------5----------------------------------|
7---------------10----------------------3----------------------------------|
---------------------------------------------------------------------------|

"Do you think That its me or its not me i dont even care"

---------------------------------------------------------------------------|
---------------------------------------------------------------------------|
9---------------12----------------------5----------------------------------|
9---------------12----------------------5----------------------------------|
7---------------10----------------------3----------------------------------|
---------------------------------------------------------------------------|

"Im alive i dont smell im the cleanest i have ever been"

---------------------------------------------------------------------------|
---------------------------------------------------------------------------|
9---------------12----------------------5----------------------------------|
9---------------12----------------------5----------------------------------|
7---------------10----------------------3----------------------------------|
---------------------------------------------------------------------------|

"I feel big i feel tall i feel dry"

---------------------------------------------------------------------------|
---------------------------------------------------------------------------|
9---------------12----------------------5----------------------------------|
9---------------12----------------------5----------------------------------|
7---------------10----------------------3----------------------------------|
---------------------------------------------------------------------------|

"(dryyyyyy)" 1:15

---------------------------------------------------------------------------|
---------------------------------------------------------------------------|
9-9-9-9-9-9-9-9-11-11-11-11-11-11-11-11------------------------------------|
---------------------------------------------------------------------------|
---------------------------------------------------------------------------|
---------------------------------------------------------------------------|PM. . . . . .. . . .. . . . . . . . . .

Chorus 1:19

"Just look at me look at me now"

Same As Part 2 Of Intro


Interlude Thing - 1:30

---------------------------------------------------------------------------|
---------------------------------------------------------------------------|
9---------------12----------------------5-5~--5-5~-------------------------|
9---------------12----------------------5-5~--5-5~-------------------------|
7---------------10----------------------3-3~--3-3~-------------------------|
---------------------------------------------------------------------------|

---------------------------------------------------------------------------|
---------------------------------------------------------------------------|
9---------------12----------------------5----------------------------------|
9---------------12----------------------5----------------------------------|
7---------------10----------------------3----------------------------------|
---------------------------------------------------------------------------|

Verse Two - 1:40

"Do i drink..."


---------------------------------------------------------------------------|
---------------------------------------------------------------------------|
9-9-9-9-9-9-9-9-12-12-12-12-12-12-12-12-5-5-5-5-5-5-5-5-5-5-5-5-5-5-5-5----|
9-9-9-9-9-9-9-9-12-12-12-12-12-12-12-12-5-5-5-5-5-5-5-5-5-5-5-5-5-5-5-5----|
7-7-7-7-7-7-7-7-10-10-10-10-10-10-10-10-3-3-3-3-3-3-3-3-3-3-3-3-3-3-3-3----|
---------------------------------------------------------------------------|
PM . . . . . . . . . . . . . . . . . . . . . . . . . . . . . . . . . . .

---------------------------------------------------------------------------|
---------------------------------------------------------------------------|
9-9-9-9-9-9-9-9-12-12-12-12-12-12-12-12-5-5-5-5-5-5-5-5-5-5-5-5-5-5-5-5----|
9-9-9-9-9-9-9-9-12-12-12-12-12-12-12-12-5-5-5-5-5-5-5-5-5-5-5-5-5-5-5-5----|
7-7-7-7-7-7-7-7-10-10-10-10-10-10-10-10-3-3-3-3-3-3-3-3-3-3-3-3-3-3-3-3----|
---------------------------------------------------------------------------|
PM . . . . . . . . . . . . . . . . . .(volume swell, gets out of palm muting)

---------------------------------------------------------------------------|
---------------------------------------------------------------------------|
9-9-9-9-9-9-9-9-12-12-12-12-12-12-12-12-5-5-5-5-5-5-5-5-5-5-5-5-5-5-5-5----|
9-9-9-9-9-9-9-9-12-12-12-12-12-12-12-12-5-5-5-5-5-5-5-5-5-5-5-5-5-5-5-5----|
7-7-7-7-7-7-7-7-10-10-10-10-10-10-10-10-3-3-3-3-3-3-3-3-3-3-3-3-3-3-3-3----|
---------------------------------------------------------------------------|

Interlude Thing Again - 2:03

"dryyyyyyyy"

---------------------------------------------------------------------------|
---------------------------------------------------------------------------|
9-9-9-9-9-9-9-9-11-11-11-11-11-11-11-11------------------------------------|
---------------------------------------------------------------------------|
---------------------------------------------------------------------------|
---------------------------------------------------------------------------|

Chorus - 2:06

"Just look at me look at me now"

Same as Part 2 of Intro, Except ..

at 2:17 Do ..

-----------------------------------------------------------------------------|
-----------------------------------------------------------------------------|
9-9-9-9--12-12-12-12--5-5-5-5---5-5-5-5--------------------------------------|
9-9-9-9--12-12-12-12--5-5-5-5---5-5-5-5--------------------------------------|
7-7-7-7--10-10-10-10--3-3-3-3---3-3-3-3--------------------------------------|
7-7-7-7--10-10-10-10--3-3-3-3---3-3-3-3--------------------------------------|

-----------------------------------------------------------------------------|
-----------------------------------------------------------------------------|
9-9-9-9--12-12-12-12--5-5-5-5---5-5-5-5--------------------------------------|
9-9-9-9--12-12-12-12--5-5-5-5---5-5-5-5--------------------------------------|
7-7-7-7--10-10-10-10--3-3-3-3---3-3-3-3--------------------------------------|
7-7-7-7--10-10-10-10--3-3-3-3---3-3-3-3--------------------------------------|

Interlude - 2:28

---------------------------------------------------------------------------|
---------------------------------------------------------------------------|
9---------------12----------------------5-5~--5-5~-------------------------|
9---------------12----------------------5-5~--5-5~-------------------------|
7---------------10----------------------3-3~--3-3~-------------------------|
---------------------------------------------------------------------------|

---------------------------------------------------------------------------|
---------------------------------------------------------------------------|
9---------------12----------------------5----------------------------------|
9---------------12----------------------5----------------------------------|
7---------------10----------------------3----------------------------------|
---------------------------------------------------------------------------|

"My stomach hurts now..."

---------------------------------------------------------------------------|
---------------------------------------------------------------------------|
9---------------12----------------------5-5~--5-5~-------------------------|
9---------------12----------------------5-5~--5-5~-------------------------|
7---------------10----------------------3-3~--3-3~-------------------------|
---------------------------------------------------------------------------|

---------------------------------------------------------------------------|
---------------------------------------------------------------------------|
9---------------12----------------------5----------------------------------|
9---------------12----------------------5----------------------------------|
7---------------10----------------------3----------------------------------|
---------------------------------------------------------------------------|
---------------------------------------------------------------------------|
---------------------------------------------------------------------------|
9---------------12----------------------5-5~--5-5~-------------------------|
9---------------12----------------------5-5~--5-5~-------------------------|
7---------------10----------------------3-3~--3-3~-------------------------|
---------------------------------------------------------------------------|

---------------------------------------------------------------------------|
---------------------------------------------------------------------------|
9---------------12----------------------5----------------------------------|
9---------------12----------------------5----------------------------------|
7---------------10----------------------3----------------------------------|
---------------------------------------------------------------------------|

Other Part? - 3:03

---------------------------------------------------------------------------|
---------------------------------------------------------------------------|
9-9-9-------------12-12-12--------------------5-5-5--5-5-5-----------------|
9-9-9-------------12-12-12--------------------5-5-5--5-5-5-----------------|
7-7-7-------------10-10-10--------------------3-3-3--3-3-3-----------------|
7-7-7-------------10-10-10--------------------3-3-3--3-3-3-----------------|

----------------------------------------------------------------------------|
----------------------------------------------------------------------------|
9-9-9-------------12-12-12--------------------5-5-5-5-5-5-------------------|
9-9-9-------------12-12-12--------------------5-5-5-5-5-5-------------------|
7-7-7-------------10-10-10--------------------3-3-3-3-3-3-------------------|
7-7-7-------------10-10-10--------------------3-3-3-3-3-3-------------------|

*Pause*

Chorus - 3:15

Same As Intro Part Two, Except

at 3:25 play this ..

----------------------------------------------------------------------------|
----------------------------------------------------------------------------|
9-9-9-9--12-12-12-12--5-5-5-5---5-5-5-5-------------------------------------|
9-9-9-9--12-12-12-12--5-5-5-5---5-5-5-5-------------------------------------|
7-7-7-7--10-10-10-10--3-3-3-3---3-3-3-3-------------------------------------|
7-7-7-7--10-10-10-10--3-3-3-3---3-3-3-3-------------------------------------|

----------------------------------------------------------------------------|
----------------------------------------------------------------------------|
9-9-9-9--12-12-12-12--5-5-5-5---5-5-5-5-------------------------------------|
9-9-9-9--12-12-12-12--5-5-5-5---5-5-5-5-------------------------------------|
7-7-7-7--10-10-10-10--3-3-3-3---3-3-3-3-------------------------------------|
7-7-7-7--10-10-10-10--3-3-3-3---3-3-3-3-------------------------------------|

Ending - 3:38

-----------------------------------------------------------------------------|
-----------------------------------------------------------------------------|
9-9-9-9--9-9-9-9--9-9-9-9-12-------------------------------------------------|
9-9-9-9--9-9-9-9--9-9-9-9-12-9-9-9-9-5-5-5-5*--------------------------------|
7-7-7-7--7-7-7-7--7-7-7-7-10-9-9-9-9-5-5-5-5*--------------------------------|
7-7-7-7--7-7-7-7--7-7-7-7----7-7-7-7-3-3-3-3*--------------------------------|

... = Palm Mute
/   = Slide
*   = Let Ring


Any Corrections, Questions or Comments Send to BILLYCRYPT@aol.com
Tap to rate this tab
 
# A B C D E F G H I J K L M N O P Q R S T U V W X Y Z