Song name
# A B C D E F G H I J K L M N O P Q R S T U V W X Y Z

Used - All That Ive Got Acoustic tab

-------------------------------------------------------------------------------
			     All That Ive Got (acoustic)- The Used
-------------------------------------------------------------------------------
Tabbed by: Guitarchitect
Email: bmcverry@gmail.com

Tuning: E A D G B e

Aaron Meredith did a really good job on tabbing this whole song for 2 guitars.
This song really is supposed to be for 2 guitars, but this is how I play it by
myself (with 1 guitar obviously).

Keep in mind that there is 2 choruses. One is the exact same as the intro, the
other has another ending. I have it marked for you guys.

Intro
e|--0-0-0-0--0-0-0-0--0-0-0-0--0-0-0-0--0-0-0-0--0-0-0-0--0-0-0-0--0-0-0-0---|
B|--3-3-3-3--3-3-3-3--3-3-3-3--3-3-3-3--3-3-3-3--3-3-3-3--3-3-3-3--3-3-3-3---|
G|--0-0-0-0--2-2-2-2--0-0-0-0--2-2-2-2--0-0-0-0--2-2-2-2--0-0-0-0--2-2-2-2---|
D|--0-0-0-0--0-0-0-0--2-2-2-2--0-0-0-0--2-2-2-2--0-0-0-0--2-2-2-2--2-2-2-2---|
A|--2-2-2-2--0-0-0-0--3-3-3-3--0-0-0-0--2-2-2-2--0-0-0-0--3-3-3-3------------|
E|--3-3-3-3--0-0-0-0--0-0-0-0--0-0-0-0--0-0-0-0--0-0-0-0--0-0-0-0------------|


Verse
e|--0--X--0-0---0-0-0-0---0-0-0-0--------------|
B|--3--X--3-0---3-3-3-3---3-3-3-3--------------|
G|--0--X--0-0---2-2-2-2---0-0-0-0--------------|    X 4
D|--2--X--2-2---0-0-0-0---2-2-2-2--------------|
A|--3--X--3-3---0-0-0-0---2-2-2-2--------------|
E|--0--X--0-0---0-0-0-0---0-0-0-0--------------|


Interlude
e|--0-0-0-0-0-----|
B|--3-3-3-3-3-----|
G|--2-2-2-2-2-----|
D|--0-0-0-0-0-----|
A|--X-X-X-X-X-----|
E|--X-X-X-X-X-----|


Verse
e|--0--X--0-0---0-0-0-0---0-0-0-0--------------|
B|--3--X--3-0---3-3-3-3---3-3-3-3--------------|
G|--0--X--0-0---2-2-2-2---0-0-0-0--------------|    X 4
D|--2--X--2-2---0-0-0-0---2-2-2-2--------------|
A|--3--X--3-3---0-0-0-0---2-2-2-2--------------|
E|--0--X--0-0---0-0-0-0---0-0-0-0--------------|


Interlude
e|--0-0-0-0-0-----|
B|--3-3-3-3-3-----|
G|--2-2-2-2-2-----|
D|--0-0-0-0-0-----|
A|--X-X-X-X-X-----|
E|--X-X-X-X-X-----|


Chorus (Same As Intro)
e|--0-0-0-0--0-0-0-0--0-0-0-0--0-0-0-0--0-0-0-0--0-0-0-0--0-0-0-0--0-0-0-0---|
B|--3-3-3-3--3-3-3-3--3-3-3-3--3-3-3-3--3-3-3-3--3-3-3-3--3-3-3-3--3-3-3-3---|
G|--0-0-0-0--2-2-2-2--0-0-0-0--2-2-2-2--0-0-0-0--2-2-2-2--0-0-0-0--2-2-2-2---|
D|--0-0-0-0--0-0-0-0--2-2-2-2--0-0-0-0--2-2-2-2--0-0-0-0--2-2-2-2--2-2-2-2---|
A|--2-2-2-2--0-0-0-0--3-3-3-3--0-0-0-0--2-2-2-2--0-0-0-0--3-3-3-3------------|
E|--3-3-3-3--0-0-0-0--0-0-0-0--0-0-0-0--0-0-0-0--0-0-0-0--0-0-0-0------------|

Verse
e|--0--X--0-0---0-0-0-0---0-0-0-0--------------|
B|--3--X--3-0---3-3-3-3---3-3-3-3--------------|
G|--0--X--0-0---2-2-2-2---0-0-0-0--------------|    X 4
D|--2--X--2-2---0-0-0-0---2-2-2-2--------------|
A|--3--X--3-3---0-0-0-0---2-2-2-2--------------|
E|--0--X--0-0---0-0-0-0---0-0-0-0--------------|


Interlude
e|--0-0-0-0-0-----|
B|--3-3-3-3-3-----|
G|--2-2-2-2-2-----|
D|--0-0-0-0-0-----|
A|--X-X-X-X-X-----|
E|--X-X-X-X-X-----|


Chorus (Different Ending as Intro)
e|--0-0-0-0--0-0-0-0--0-0-0-0--0-0-0-0--0-0-0-0--0-0-0-0--0-0-0-0--0-0-0-0---|
B|--3-3-3-3--3-3-3-3--3-3-3-3--3-3-3-3--3-3-3-3--3-3-3-3--3-3-3-3--3-3-3-3---|
G|--0-0-0-0--2-2-2-2--0-0-0-0--2-2-2-2--0-0-0-0--2-2-2-2--0-0-0-0--2-2-2-2---|
D|--0-0-0-0--0-0-0-0--2-2-2-2--0-0-0-0--2-2-2-2--0-0-0-0--2-2-2-2--2-2-2-2---|
A|--2-2-2-2--0-0-0-0--3-3-3-3--0-0-0-0--2-2-2-2--0-0-0-0--3-3-3-3------------|
E|--3-3-3-3--0-0-0-0--0-0-0-0--0-0-0-0--0-0-0-0--0-0-0-0--0-0-0-0------------|

e|--0-0-0-0--0-0-0-0--0-0-0-0--0-0-0-0--|
B|--3-3-3-3--3-3-3-3--3-3-3-3--3-3-3-3--|
G|--0-0-0-0--0-0-0-0--0-0-0-0--2-2-2-2--|
D|--2-2-2-2--0-0-0-0--2-2-2-2--0-0-0-0--|
A|--2-2-2-2--3-3-3-3--3-3-3-3--0-0-0-0--|
E|--0-0-0-0--2-2-2-2--0-0-0-0--0-0-0-0--|


Verse
e|--0--X--0-0---0-0-0-0---0-0-0-0--------------|
B|--3--X--3-0---3-3-3-3---3-3-3-3--------------|
G|--0--X--0-0---2-2-2-2---0-0-0-0--------------|    X 2
D|--2--X--2-2---0-0-0-0---2-2-2-2--------------|
A|--3--X--3-3---0-0-0-0---2-2-2-2--------------|
E|--0--X--0-0---0-0-0-0---0-0-0-0--------------|


Chorus (Different Ending as Intro)
e|--0-0-0-0--0-0-0-0--0-0-0-0--0-0-0-0--0-0-0-0--0-0-0-0--0-0-0-0--0-0-0-0---|
B|--3-3-3-3--3-3-3-3--3-3-3-3--3-3-3-3--3-3-3-3--3-3-3-3--3-3-3-3--3-3-3-3---|
G|--0-0-0-0--2-2-2-2--0-0-0-0--2-2-2-2--0-0-0-0--2-2-2-2--0-0-0-0--2-2-2-2---|
D|--0-0-0-0--0-0-0-0--2-2-2-2--0-0-0-0--2-2-2-2--0-0-0-0--2-2-2-2--2-2-2-2---|
A|--2-2-2-2--0-0-0-0--3-3-3-3--0-0-0-0--2-2-2-2--0-0-0-0--3-3-3-3------------|
E|--3-3-3-3--0-0-0-0--0-0-0-0--0-0-0-0--0-0-0-0--0-0-0-0--0-0-0-0------------|

e|--0-0-0-0--0-0-0-0--0-0-0-0--0-0-0-0--|
B|--3-3-3-3--3-3-3-3--3-3-3-3--3-3-3-3--|
G|--0-0-0-0--0-0-0-0--0-0-0-0--2-2-2-2--|
D|--2-2-2-2--0-0-0-0--2-2-2-2--0-0-0-0--|
A|--2-2-2-2--3-3-3-3--3-3-3-3--0-0-0-0--|
E|--0-0-0-0--2-2-2-2--0-0-0-0--0-0-0-0--|


Good Luck. Great Song.


| x  Mute note
===============================================================================
Tap to rate this tab
 
# A B C D E F G H I J K L M N O P Q R S T U V W X Y Z