Song name
# A B C D E F G H I J K L M N O P Q R S T U V W X Y Z

Used - It Could Be A Good Excuse tab

made by carrrrrie
[half way through sumbiting this i recieved my issue of AP with the used on the cover WOOOOOO]

intro/verse:  "Blind on a legde...."
-----| ----------------------------------------------------|
-----| ----------------------------------------------------|
-----| ----7-------7-------7--------------7-------7--------|
-4-4-| 44--7--444--7--555--7--55-5-5--44--7--444--7-xx5----|  x6
-4-4-| 44--5--444--5--555--5--55-5-5--44--5--444--5-x------|x5/
-2-2-| 22-----222-----333-----33-3-3--22-----222----x------|x3/


chorus: "Maybe a good excuse..."
----------------------------|
----------------------------|
-7-7-7-7--7-7--7-7-7-7--7-7-|
-7-7-7-7--7-7--7-7-7-7--7-7-|    x2
-5-5-5-5--4-4--5-5-5-5--4-4-|
----------------------------|

"but i.."
-----------------------------------|
-2-2-232-2-2-232-2-2-232-2-2-232---|
-2-2-----2-2-----2-2-----2-2-------|
-2-2-----2-2-----2-2-----2-2-------|  x1
-----------------------------------|
-----------------------------------|

"CARE FOR YOU..."
------------------------------------|
-2-2-232-2-2-232-2-2-232-2-2-232----|
-2-2-222-2-2-222-2-2-222-2-2-222----|   x2
-2-2-222-2-2-222-2-2-222-2-2-222----|
------------------------------------|
------------------------------------|

"Could be a good...."
---------------|
---------------|
---------------|
-7-7-7--5-5-5--|  straight into verse  [below]
-7-7-7--5-5-5--|
-5-5-5--3-3-3--|

"full of love...."
-----------------------------------------------------------|
-----------------------------------------------------------|
-----7-------7-------7--------------7-------7--------------|
-44--7--444--7--555--7--55-5-5--44--7--444--7-xx5/  x2 1/2-|
-44--5--444--5--555--5--55-5-5--44--5--444--5-x------------|x5/
-22-----222-----333-----33-3-3--22-----222----x------------|x3/


bass part while bert sing
"and its not a thing"
random guitar part


chorus: "Maybe a good excuse..."
----------------------------|
----------------------------|
-7-7-7-7--7-7--7-7-7-7--7-7-|
-7-7-7-7--7-7--7-7-7-7--7-7-|    x2
-5-5-5-5--4-4--5-5-5-5--4-4-|
----------------------------|

"but i.."
-----------------------------------|
-2-2-232-2-2-232-2-2-232-2-2-232---|
-2-2-----2-2-----2-2-----2-2-------|
-2-2-----2-2-----2-2-----2-2-------|  x2
-----------------------------------|
-----------------------------------|

"CARE FOR YOU..."
------------------------------------|
-2-2-232-2-2-232-2-2-232-2-2-232----|
-2-2-222-2-2-222-2-2-222-2-2-222----|   x2
-2-2-222-2-2-222-2-2-222-2-2-222----|
------------------------------------|


end with
-----
-----
-----
-77--
-77--
-55--
Tap to rate this tab
# A B C D E F G H I J K L M N O P Q R S T U V W X Y Z