Song name
# A B C D E F G H I J K L M N O P Q R S T U V W X Y Z

Used - Handsome Awkward tab

Help us improve GuitareTab! Take a short survey!
Tabbed By: Travis Stack

Email: stack_attack2001@hotmail.com

I thought I'd put up my own...I'm pretty sure its correct

Intro:

(High Treble/Low Bass Overdrive) 
e|---------------------------------------------------------------------------------------|
B|---------------------------------------------------------------------------------------|
G|---------------------------------------------------------------------------------------|
D|-------0------------------0---------------------0---------------------------------xxx--|
A|----------------------------------------------------------------------------------xxx--|
D|-0h3h5----0-0-0-0-0--0h3h5----0-0-0-0-0---0h3h5-----0-0-0-0-0---0h3h5---3-333-5-5-xxx--|
x1

(Heavy Overdrive)
e|-------------------------------------------------------------------------------------|
B|-------------------------------------------------------------------------------------|
G|-------------------------------------------------------------------------------------|
D|-0---0-0-0-0-0--------0---0-0-0-0-0----------0--0-0-0-0-0-----------3-333-5-5--xxx---|
A|-0---0-0-0-0-0------------0-0-0-0-0-------------0-0-0-0-0-----------3-333-5-5--xxx---|
D|-0---0-0-0-0-0--0h3h5-----0-0-0-0-0---0h3h5-----0-0-0-0-0---0h3h5---3-333-5-5--xxx---|

x1


Verse:
e|-------------------------------------------------------------------------------------|
B|-------------------------------------------------------------------------------------|
G|-------------------------------------------------------------------------------------|
D|----------------------0----------------------0---------------------------------xxx---|
A|-0---0-0-0-0-0------------0-0-0-0-0-------------0-0-0-0-0-----------3-333-5-5--xxx---|
D|-0---0-0-0-0-0--0h3h5-----0-0-0-0-0---0h3h5-----0-0-0-0-0---0h3h5---3-333-5-5--xxx---|
x2

I think Quinn slides up from around the 3rd fret on the top 3 strings 


Chorus:

e|---------------------------------------------------------------------------|
B|---------------------------------------------------------------------------|
G|---------------------------------------------------------------------------|
D|-xxx---0-0-0-0--3-3-3-3--10-10-10-10--9--9--9------------------------------|
A|-xxx---0-0-0-0--3-3-3-3--10-10-10-10--10-10-10-----------------------------|
D|-xxx---0-0-0-0--3-3-3-3--10-10-10-10--9--9--9------------------------------|

x2

(You can figure out the strumming pattern)

Pre-Verse:

e|-------------------------------------------------------------------------------------|
B|-------------------------------------------------------------------------------------|
G|-------------------------------------------------------------------------------------|
D|-0---0-0-0-0-0--------0---0-0-0-0-0----------0--0-0-0-0-0-----------3-333-5-5--xxx---|
A|-0---0-0-0-0-0------------0-0-0-0-0-------------0-0-0-0-0-----------3-333-5-5--xxx---|
D|-0---0-0-0-0-0--0h3h5-----0-0-0-0-0---0h3h5-----0-0-0-0-0---0h3h5---3-333-5-5--xxx---|

x1

Verse 2:

Nothing for 4 bars...except MORE COWBELL!!!

(After the pause it's the same as first verse with weird slides or shit)

Chorus x2

Break:

e|-------------------------------------------------------------------------|
B|-------------------------------------------------------------------------|
G|-------------------------------------------------------------------------|
D|-----0---3---10----9-----------------------------------3-333---5-5--xxx--|
A|----0---3---10---10------------------------------------3-333---5-5--xxx--|
D|---0---3---10---9-----x2--(speed metal riff)-0000-x21--3-333---5-5--xxx--|

Intro Riff x1

Chorus x4

(There's a solo in here...still workin on it)

e|-------------------------------------------------------------------------------------|
B|-------------------------------------------------------------------------------------|
G|-------------------------------------------------------------------------------------|
D|-0---0-0-0-0-0--------0---0-0-0-0-0----------0--0-0-0-0-0-----------3-333-5-5--xxx---|
A|-0---0-0-0-0-0------------0-0-0-0-0-------------0-0-0-0-0-----------3-333-5-5--xxx---|
D|-0---0-0-0-0-0--0h3h5-----0-0-0-0-0---0h3h5-----0-0-0-0-0---0h3h5---3-333-5-5--xxx---|


e|-------------------------------------------------------------------------------------|
B|-------------------------------------------------------------------------------------|
G|-8--------------------8---------------------8----------------------------------------|
D|-x---0-0-0-0-0--------x---0-0-0-0-0---------x---0-0-0-0-0-----------3-333-5-5--------|
A|-6---0-0-0-0-0--------6---0-0-0-0-0---------6---0-0-0-0-0-----------3-333-5-5--------|
D|-----0-0-0-0-0--0h3h5-----0-0-0-0-0---0h3h5-----0-0-0-0-0---0h3h5---3-333-5-5--------|


e|---------------------------------------------------------------------------|
B|---------------------------------------------------------------------------|
G|---------------------------------------------------------------------------|
D|---------------------------------------333---0-----------------------------|
A|-------0h3h5-------0h3h5-------0h3h5---333---0-----------------------------|
D|-0h3h5-------0h3h5-------0h3h5---------333---0-----------------------------|


| /  slide up
| \  slide down
| h  hammer-on
| p  pull-off
| ~  vibrato
| +  harmonic
| x  Mute note

===============================================================================
Related for Handsome Awkward tab