Song name
# A B C D E F G H I J K L M N O P Q R S T U V W X Y Z

Used - Pretty Handsome Awkward tab

Help us improve GuitareTab! Take a short survey!
"Pretty Handsome Awkward" by The Used

Intrro
(Guitar I)
E--------------------------------------|
B--------------------------------------|
G--------------------------------------|
D------0-----------------0-------------|
A--------------------------------------|
D-0h3h5--0-0-0-0-0--0h3h5--0-0-0-0-0---|
PM       * * * * *         * * * * *

E------------------------------------------------|
B------------------------------------------------|
G------------------------------------------------|
D------0--------------------------------6-5-3-0--|
A---------------------------------------6-5-3-0--|
D-0h3h5--0-0-0-0-0--0h3h5--3--3-3-3-5-5-6-5-3-0--|
PM       * * * * *         *  * * * * *

(Guitar I & II)
(x = Mute strings with chord fingers directly after strumming.)
E-------------------------------|
B-------------------------------|
G-------------------------------|
D-0x0x0x0x0-------0-0x0x0x0x0---|
A-0x0x0x0x0---------0x0x0x0x0---|
D-0x0x0x0x0--0h3h5--0x0x0x0x0---|


E-------------------------------------------------|
B-------------------------------------------------|
G-------------------------------------------------|
D------0-0x0x0x0x0---------3--3x3x3x5x5-6-5-3-0---|
A--------0x0x0x0x0---------3--3x3x3x5x5-6-5-3-0---|
D-0h3h5--0x0x0x0x0--0h3h5--3--3x3x3x5x5-6-5-3-0---|


Verse 1
(Guitar I & II)

Your dream vacation...
E-------------------------------|
B-------------------------------|
G-------------------------------|
D-0x0x0x0x0-------0-0x0x0x0x0---|
A-0x0x0x0x0---------0x0x0x0x0---|
D-0x0x0x0x0--0h3h5--0x0x0x0x0---|

A work in progress...
E-------------------------------------------------|
B-------------------------------------------------|
G-------------------------------------------------|
D------0-0x0x0x0x0---------3--3x3x3x5x5-6-5-3-0---|
A--------0x0x0x0x0---------3--3x3x3x5x5-6-5-3-0---|
D-0h3h5--0x0x0x0x0--0h3h5--3--3x3x3x5x5-6-5-3-0---|

I beg to differ...
E-------------------------------|
B-------------------------------|
G-------------------------------|
D-0x0x0x0x0-------0-0x0x0x0x0---|
A-0x0x0x0x0---------0x0x0x0x0---|
D-0x0x0x0x0--0h3h5--0x0x0x0x0---|

Warm summer rain...
E-------------------------------------------------|
B-------------------------------------------------|
G-------------------------------------------------|
D------0-0x0x0x0x0---------3--3x3x3x5x5-6-5-3-0---|
A--------0x0x0x0x0---------3--3x3x3x5x5-6-5-3-0---|
D-0h3h5--0x0x0x0x0--0h3h5--3--3x3x3x5x5-6-5-3-0---|

Pre Chorus
Guitar I
E---------------------------------------------------|
B---------------------------------------------------|
G---------------------------------------------------|
D-0-------------------------------------------------|
A-0-------------------------------------------------|
D-0-------------------------------------------------|

Guitar II
E---------------------------------------------------|
B---------------------------------------------------|
G---------------------------------------------------|
D---------------------------------------------------|
A-5-(metal slide)-16--------------------------------|
D---------------------------------------------------|


Chorus

Guitar I

Hey are you okay...
E---------------------------------------------------|
B---------------------------------------------------|
G-------------5-----4-------------------------------|
D-0-----3-----5-x8--5-x6-6-5-3----------------------|
A-0-x8--3-x8--3-----2----6-5-3----------------------|
D-0-----3----------------6-5-3----------------------|

Guitar II

E---------------------------------------------------|
B---------------------------------------------------|
G---------------------------------------------------|
D-0-----3-----10-----9------------------------------|
A-0-x8--3-x8--10-x8--10-x8--------------------------|
D-0-----3-----10-----9------------------------------|

Guitar I

Do you feel okay...
E---------------------------------------------------|
B---------------------------------------------------|
G-------------5-----4-------------------------------|
D-0-----3-----5-x8--5-x6-6-5-3-0--------------------|
A-0-x8--3-x8--3-----2----6-5-3-0--------------------|
D-0-----3----------------6-5-3-0--------------------|

Guitar II

E---------------------------------------------------|
B---------------------------------------------------|
G---------------------------------------------------|
D-0-----3-----10-----9------------------------------|
A-0-x8--3-x8--10-x8--10-x8--------------------------|
D-0-----3-----10-----9------------------------------|


Post Chorus

E-------------------------------|
B-------------------------------|
G-------------------------------|
D-0x0x0x0x0-------0-0x0x0x0x0---|
A-0x0x0x0x0---------0x0x0x0x0---|
D-0x0x0x0x0--0h3h5--0x0x0x0x0---|


E-------------------------------------------------|
B-------------------------------------------------|
G-------------------------------------------------|
D------0-0x0x0x0x0---------3--3x3x3x5x5-6-5-3-0---|
A--------0x0x0x0x0---------3--3x3x3x5x5-6-5-3-0---|
D-0h3h5--0x0x0x0x0--0h3h5--3--3x3x3x5x5-6-5-3-0---|

Verse 2
(Guitar I & II)

At this part turn your guitar's volume knob all the way down.

Your market value...
E---------------------------------------------------|
B---------------------------------------------------|
G---------------------------------------------------|
D---------------------------------------------------|
A---------------------------------------------------|
D-(Bass Only)---------------------------------------|

When Bert says "shallow" play this with your volume still down:

E---------------
B---------------
G---------------
D--3------------
A--3------------
D--3------------

Then slowly turn your guitar volume back up until he says "help" which is when the first strum is.

Your shallow concept...
E-----------------------------------------------------|
B-----------------------------------------------------|
G-----------------------------------------------------|
D-3--------------------------3--3x3x3x5x5-6-5-3-0-----|
A-3--------------------------3--3x3x3x5x5-6-5-3-0-----|
D-3-(Slowly Turn Volume Up)--3--3x3x3x5x5-6-5-3-0-----|

I know you meant it...
E-------------------------------|
B-------------------------------|
G-------------------------------|
D-0x0x0x0x0-------0-0x0x0x0x0---|
A-0x0x0x0x0---------0x0x0x0x0---|
D-0x0x0x0x0--0h3h5--0x0x0x0x0---|

Embrace the burn...
E-------------------------------------------------|
B-------------------------------------------------|
G-------------------------------------------------|
D------0-0x0x0x0x0---------3--3x3x3x5x5-6-5-3-0---|
A--------0x0x0x0x0---------3--3x3x3x5x5-6-5-3-0---|
D-0h3h5--0x0x0x0x0--0h3h5--3--3x3x3x5x5-6-5-3-0---|



Chorus

Guitar I

Hey are you okay...
E---------------------------------------------------|
B---------------------------------------------------|
G-------------5-----4-------------------------------|
D-0-----3-----5-x8--5-x6-6-5-3----------------------|
A-0-x8--3-x8--3-----2----6-5-3----------------------|
D-0-----3----------------6-5-3----------------------|

Guitar II

E---------------------------------------------------|
B---------------------------------------------------|
G---------------------------------------------------|
D-0-----3-----10-----9------------------------------|
A-0-x8--3-x8--10-x8--10-x8--------------------------|
D-0-----3-----10-----9------------------------------|

Guitar I

Do you feel okay...
E---------------------------------------------------|
B---------------------------------------------------|
G-------------5-----4-------------------------------|
D-0-----3-----5-x8--5-x6-6-5-3-0--------------------|
A-0-x8--3-x8--3-----2----6-5-3-0--------------------|
D-0-----3----------------6-5-3-0--------------------|

Guitar II

E---------------------------------------------------|
B---------------------------------------------------|
G---------------------------------------------------|
D-0-----3-----10-----9------------------------------|
A-0-x8--3-x8--10-x8--10-x8--------------------------|
D-0-----3-----10-----9------------------------------|


Interlude

(Guitar I)
E---------------------------------------------------|
B---------------------------------------------------|
G---------------5------4----------------------------|
D-0------3------5------5----------------------------|
A-0------3------3------2----------------------------|
D-0------3------------------------------------------|

(Guitar II)
E---------------------------------------------------|
B---------------------------------------------------|
G---------------------------------------------------|
D-12-----11-----10-----9----------------------------|
A-12-----11-----10-----10---------------------------|
D-12-----11-----10-----9----------------------------|


(Guitar I)
E---------------------------------------------------|
B---------------------------------------------------|
G---------------5------4-----0----------------------|
D-0------3------5------5-----9----------------------|
A-0------3------3------2-----10---------------------|
D-0------3-------------------9----------------------|

(Guitar II)
E---------------------------------------------------|
B---------------------------------------------------|
G----------------------------0----------------------|
D---12-----11-----10----9----9----------------------|
A-----12-----11-----10---10--10---------------------|
D-12-----11-----10-----9-----9----------------------|


Your dream vacation...
E-------------------|-------------------|
B-------------------|-------------------|
G-------------------|-------------------|
D-0000---0000--0000-|-0000---0000--0000-|
A-0000---0000--0000-|-0000---0000--0000-|
D-0000---0000--0000-|-0000---0000--0000-|
PM****   ****  ****   ****   ****  ****

A work in progress...
E-------------------|-------------------|
B-------------------|-------------------|
G-------------------|-------------------|
D-0000---0000--0000-|-0000---0000--0000-|
A-0000---0000--0000-|-0000---0000--0000-|
D-0000---0000--0000-|-0000---0000--0000-|
PM****   ****  ****   ****   ****  ****

Guitar I

I beg to differ...
E-------------------|-------------------|
B-------------------|-------------------|
G-------------------|-------------------|
D-0000---0000--0000-|-0000---0000--0000-|
A-0000---0000--0000-|-0000---0000--0000-|
D-0000---0000--0000-|-0000---0000--0000-|
PM****   ****  ****   ****   ****  ****

Guitar II(Quietly in Background)
E--------------------------------------|
B--------------------------------------|
G--------------------------------------|
D------0-----------------0-------------|
A--------------------------------------|
D-0h3h5--0-0-0-0-0--0h3h5--0-0-0-0-0---|
PM       * * * * *         * * * * *

Guitar I

Warm summer rain...
E----------------------------------------|
B----------------------------------------|
G----------------------------------------|
D-0000---0000--0000--3-3-3-3-5-5-6-5-3-0-|
A-0000---0000--0000--3-3-3-3-5-5-6-5-3-0-|
D-0000---0000--0000--3-3-3-3-5-5-6-5-3-0-|
PM****   ****  ****  * * * * * * * * *

Guitar II (Quietly in Background)
E------------------------------------------------|
B------------------------------------------------|
G------------------------------------------------|
D------0--------------------------------6-5-3-0--|
A---------------------------------------6-5-3-0--|
D-0h3h5--0-0-0-0-0--0h3h5--3--3-3-3-5-5-6-5-3-0--|
PM       * * * * *         *  * * * * *


Pre Chorus
(Guitar I & II)

E-------------------------------|
B-------------------------------|
G-------------------------------|
D-0x0x0x0x0-------0-0x0x0x0x0---|
A-0x0x0x0x0---------0x0x0x0x0---|
D-0x0x0x0x0--0h3h5--0x0x0x0x0---|

E-------------------------------------------------|
B-------------------------------------------------|
G-------------------------------------------------|
D------0-0x0x0x0x0---------3--3x3x3x5x5-6-5-3-0---|
A--------0x0x0x0x0---------3--3x3x3x5x5-6-5-3-0---|
D-0h3h5--0x0x0x0x0--0h3h5--3--3x3x3x5x5-6-5-3-0---|


Chorus

Guitar I

Hey are you okay...
E---------------------------------------------------|
B---------------------------------------------------|
G-------------5-----4-------------------------------|
D-0-----3-----5-x8--5-x6-6-5-3----------------------|
A-0-x8--3-x8--3-----2----6-5-3----------------------|
D-0-----3----------------6-5-3----------------------|

Guitar II

E---------------------------------------------------|
B---------------------------------------------------|
G---------------------------------------------------|
D-0-----3-----10-----9------------------------------|
A-0-x8--3-x8--10-x8--10-x8--------------------------|
D-0-----3-----10-----9------------------------------|

Guitar I

Do you feel okay...
E---------------------------------------------------|
B---------------------------------------------------|
G-------------5-----4-------------------------------|
D-0-----3-----5-x8--5-x6-6-5-3-0--------------------|
A-0-x8--3-x8--3-----2----6-5-3-0--------------------|
D-0-----3----------------6-5-3-0--------------------|

Guitar II

E---------------------------------------------------|
B---------------------------------------------------|
G---------------------------------------------------|
D-0-----3-----10-----9------------------------------|
A-0-x8--3-x8--10-x8--10-x8--------------------------|
D-0-----3-----10-----9------------------------------|


Chorus/Solo

(Guitar I continues chorus.)


(Guitar II)

E-10-----------10-----------------------------------|
B---13b15(hold)--13b15-------13b14------------------|
G-----------------------12b14-----12b14~~-----------|
D---------------------------------------------------|
A---------------------------------------------------|
D---------------------------------------------------|


E----------------------------------------------------|
B----------------------------------------------10h13-|
G-11b13~~~~~~11-12b14r12p10---------------10h12------|
D--------------------------12--10h12-10h12-----------|
A----------------------------------------------------|
D----------------------------------------------------|


E-10-------13--10-----10----------------------------|
B---13b15(hold)--13b15--13b15r13-------10-----------|
G--------------------------------12b14(hold---hold)-|
D---------------------------------------------------|
A---------------------------------------------------|
D---------------------------------------------------|


E---------------------------------------------------------------|
B-------------------------------------18b20r18b20-19b21---------|
G-12b14r12p10------------14-17-18~~~~~--------------------------|
D------------12-14-15-17-------^--------------------------------|
A------------^-----------------^--------------------------------|
D------------^-----------------^------------------------11/12\3-|
             ^                 ^ 
           (Wah Pedal here to here)

Outro
(Guitar I & II)

E-------------------------------|
B-------------------------------|
G-------------------------------|
D-0x0x0x0x0-------0-0x0x0x0x0---|
A-0x0x0x0x0---------0x0x0x0x0---|
D-0x0x0x0x0--0h3h5--0x0x0x0x0---|

E----------------------------------------|
B----------------------------------------|
G----------------------------------------|
D------0-0x0x0x0x0---------3--3x3x3x5x5--|
A--------0x0x0x0x0---------3--3x3x3x5x5--|
D-0h3h5--0x0x0x0x0--0h3h5--3--3x3x3x5x5--|


E---------------------------------------------------|
B---------------------------------------------------|
G---------------------------------------------------|
D-------6-0x0x0x0x0--------6-0x0x0x0x0--------------|
A-------6-0x0x0x0x0--------6-0x0x0x0x0--------------|
D-0h3h5-6-0x0x0x0x0--0h3h5-6-0x0x0x0x0--------------|


E---------------------------------------------------|
B---------------------------------------------------|
G---------------------------------------------------|
D-------6-0x0x0x0x0--------3--3x3x3x5x5-------------|
A-------6-0x0x0x0x0--------3--3x3x3x5x5-------------|
D-0h3h5-6-0x0x0x0x0--0h3h5-3--3x3x3x5x5-------------|


E---------------------------------------------------|
B---------------------------------------------------|
G---------------------------------------------------|
D--------------------------------6-5-3-0------------|
A------0h3h5-----0h3h5-----0h3h5-6-5-3-0------------|
D-0h3h5-----0h3h5-----0h3h5------6-5-3-0------------|
Related for Pretty Handsome Awkward tab