Song name
# A B C D E F G H I J K L M N O P Q R S T U V W X Y Z

Useless Id - Day By Day tab

-------------------------------------------------------------------------------
			 DAY BY DAY - Useless ID
--------------------------------------------------------------------------------


Verse
e|----------------------------------------|
B|----------------------------------------|
G|--7----6----4----3---------7------------|
D|--7----6----4----3----5----7----5----7--|
A|--5----4----2----1----5----5----5----7--|
E|----------------------3---------3----5--|

Chorus
e|-------------------------|   |----------|
B|-------------------------|   |----------|
G|-----------------4-------|   |----------|
D|--5----7----4----4----7--|x3 |--5----7--|
A|--5----7----4----2----7--|   |--5----7--|
E|--3----5----2---------5--|   |--3----5--|

Listen to the CD so as to get the rhythm & timing for pick slide.
guitar solo missing I'm afraid.
===============================================================================
Tap to rate this tab
# A B C D E F G H I J K L M N O P Q R S T U V W X Y Z