Song name
# A B C D E F G H I J K L M N O P Q R S T U V W X Y Z

Useless Id - Run tab

-------------------------------------------------------------------------------
                               RUN - Useless ID
--------------------------------------------------------------------------------


Intro:
1:----------------------------------------------------|
2:----------------------------------------------------|
3:-----6-----6-----6-----6-----3-----3-----3-----3----|
4:----------------------------------------------------|
5:-4-4---4-4---4-4---4-4---1-1---1-1---1-1---1-1------|
6:----------------------------------------------------|
pm . .   . .   . .   . .   . .   . .   . .   . .

Verse 1:
1:---------------------------------------------------|
2:---------------------------------------------------|
3:---------------------------------------------------|
4:--6666-66------------------------------------------|
5:--4444-44-6666-66-8888-88-4444-44------------------|
6:----------4444-44-6666-66-2222-22------------------|
pm  ....     ....    ....    ....

Pre Chorus:
1:------------------------------------|
2:------------------------------------|
3:------------------------------------|
4:------------------------------------|
5:-8-8-8-8-8-8-8--6--4-4-4-4-4-4-4-4--|
6:-6-6-6-6-6-6-6--4--2-2-2-2-2-2-2-2--|

Chorus + Other Verses:
(listen to cd for rythym)

1:------------------|
2:------------------|
3:------------------|
4:-6----------------|
5:-4-6-8-4----------|
6:---4-6-2----------|

Please e-mail me with any corrections.

=====================================================================
Tap to rate this tab
 
# A B C D E F G H I J K L M N O P Q R S T U V W X Y Z