Song name
# A B C D E F G H I J K L M N O P Q R S T U V W X Y Z

Useless Id - Its Alright chords

Highlighted       Show chord diagrams
It's Alright By Useless Id

Tabbed by Scorf

Another catchy song By Useless ID, enjoy it !!!

Intro
  
e|-------------|
B|-------------|
D|-----4-----4-|
G|---4-----4---|
A|-2-----2-----|
E|-------------|
               

verse 1

e|-------------------------------------------------|
B|-------------------------------------------------|
D|-----4-----4-------------------------------------|
G|---4-----4-------4-----4-----6-----6-----2-----2-|
A|-2-----2-------4-----4-----6-----6-----2-----2---|
E|-------------2-----2-----4-----4-----0-----0-----|
   "Tune in"..."What I"... "Why be"... "Not"...

Tune in listen to
What I have to say to you
Why be sorry when you're not

verse 2

e|-------------------------------------------------|
B|-------------------------------------------------|
D|-----4-----4-------------------------------------|
G|---4-----4-------4-----4-----6-----6-------------|
A|-2-----2-------4-----4-----6-----6---------------|
E|-------------2-----2-----4-----4-----0-----------|
   "Don't"...  "There's"..."When"...   "Won"...

Don't you realize
There's no consollation prize
When you're betting all you've won

verse 3

e|---2-----2-----------------------------------------------|
B|-----4-----4-----2-----2-------4-----4-------2-0---2-0---|
D|-4-----4-----4-----3-----3-------4-----4---------------1-|
G|---------------4-----4-----4-6-----6-----6-2-----2-------|
A|---------------------------------------------------------|
E|---------------------------------------------------------|
  "Alright"...   "Let"...      "Alright"...  "Let you down"

But it's alright I won't let you down
But it's alright I won't let you down

e|---2-----2-----------------------------------|
B|-----4-----4-----2-----2-------4-----4-----0-|
D|-4-----4-----4-----3-----3-------4-----4---1-|
G|---------------4-----4-----4-6-----6-----6-2-|
A|-------------------------------------------2-|
E|---------------------------------------------|
   "Alright"...   "Let"...     "Away        Oh"

But it's alright I won't let this fade away

Bridge

B/B E/E/E F#/F# B/B/B
B/B E/E/E F#/F# B


B (Let ring While you're bassplayer is gettin' off !!!)
She will poison you again
Just to get her sweet revenge
You believe it's not what she is after
B (Let ring... Isn't this bass solo lasting for ages ??? ;-) )
You are not in love my friend
Save it for someone who cares
G#m               F#            E
Things will never be the same between us

Chorus
         B               F#
But it's alright I won't let you down
         G#m             E
But it's alright I won't let you down
         B               F#             G#m     E
But it's alright I won't let this fade away

            G#m    E              F#
When you say..HEY! The writing is on the wall
B   F#      G#m       E                 F#
Not so far away.. NO! I won't share the past
B    F#        G#m E              F# 
With you in anyway How come we pretend
B    F#    G#m E               F#     
Everythings ok When we lost it all

Bridge

B
Tune in listen to
F#
What I have to say to you
G#m                      E
Why be sorry when you're not
B
Don't you realize
F#
You're the consollation prize
G#m                           E
Now you're betting all you've won

But it's alright I won't let you down
But it's alright I won't let you down
But it's alright I won't let this fade away

When you say..HEY! The writing is on the wall
Not so far away.. NO! I won't share the past
With you in anyway How come we pretend
Everythings ok When we lost it all

E/E/E         F#(arp)              
     Save the best times
G#m/G#m/G#m  B(arp) 
     Lose my trust along the way
E/E/E     F#(arp)
     I'll forget it
G#m/G#m/G#m    B(arp)           E
     While you remember it that way
          F#        
     Dissapointment
 G#m             B               E
     That's what happens when you
              F#            G#m   E   F#
     Trade me in for one mistake

G#m   E   F#  x 2

G#m  E               F#  
     when we lost it all
                        F#/F#/G#m/G#m
Tap to rate this tab
 
# A B C D E F G H I J K L M N O P Q R S T U V W X Y Z