Song name
# A B C D E F G H I J K L M N O P Q R S T U V W X Y Z

Useless Id - Not To Wait tab

-------------------------------------------------------------------------------
			NOT TO WAIT - Useless ID
--------------------------------------------------------------------------------

e|-----------------------|--------------------------------------------|
B|-7---7---9-------------|--------------------------------------------|
G|-----------------------|-----------------------9-----------------9--|
D|-------------6---8---9-|-----------------9-----9-----6-----4-----9--|
A|-----------------------|-----------------9-----7-----6-----4-----7--|
E|-----------------------|-----------------7-----------4-----2--------|

e|--------------------------------|
B|--------------------------------|
G|-----8-------11---9---12--(pm)--|
D|-9---8---6---11---9---12---9----| x2
A|-9---6---6----9---7---10---9----|
E|-7-------4-----------------7----|

e|--------=palm muted=----------------------|
B|------------------------------------------|
G|-----------------9---------------------9--|
D|-9/8/6-----4-----9-----9/8/6-----4-----9--|
A|-9/8/6-----4-----7-----9/8/6-----4-----7--|
E|-7/6/4-----2-----------7/6/4-----2--------|

e|-----------------------------------------------------|
B|-----------------------------------------------------|
G|-------------------9-----------------------9-----11--|
D|-9-----6-----4-----9-----9-----6-----4-----9-----11--|
A|-9-----6-----4-----7-----9-----6-----4-----7------9--|
E|-7-----4-----2-----------7-----4-----2---------------|

e|----|------------|-----------------------|
B|----|--------7---|-----------------------|
G|----|--9---9-----|--------------9--------|
D|-9--|----or------|--6-----4-----9-----9--|
A|-9--|-pick slide-|--6-----4-----7-----9--|
E|-7--|------------|--4-----2-----------7--|

*"pm" means palm muted. Listen to the CD to get rhythm. Enjoy.
===============================================================================
Tap to rate this tab
 
# A B C D E F G H I J K L M N O P Q R S T U V W X Y Z