Song name
# A B C D E F G H I J K L M N O P Q R S T U V W X Y Z

Usher - U Got It Bad tab

This is how i play the solo to "U Got It Bad" by Usher

Tuning: Standard

h= hammer on
p= pull off
v= vibrato
/n= slide up to
n\= slide down from
b= bend
b(n)= bend to sound like...

|---------------------------------------------------------------------|
|------14-18b-18b---18-16-14-14v-16\------14----14h16--18-14v--16-13v-|
|--/15--------------------------------/15----15-----------------------|
|---------------------------------------------------------------------|
|---------------------------------------------------------------------|
|---------------------------------------------------------------------|

|----------------------------------------------------------|
|-14-------------------------------------------------------|
|-----15-13-15---------------------------------------------|
|--------------13h15p15--11-11h13-11h13-11h13-11h13v-------|
|-----------------------------------------------------13\--|
|----------------------------------------------------------|

|-------------------------------------------------------------------|
|------------------------------16-14----14-16--18--19--21--21-21-21-|
|---------------------13----13-------16-----------------------------|
|----------11-8-11-15----15-----------------------------------------|
|--8-11-8-----------------------------------------------------------|
|-------------------------------------------------------------------|

|-18-----------18-20-20b21-20-18----18------------------------------|
|----21-18--21-------------------21----18-16v--14-16-14-21v--19-19v-|
|-------------------------------------------------------------------|
|-------------------------------------------------------------------|
|-------------------------------------------------------------------|
|-------------------------------------------------------------------|

|--------------------------|
|-18-18v--16-16v-14-17b18--|
|--------------------------|
|--------------------------|
|--------------------------|
|--------------------------|
Tap to rate this tab
# A B C D E F G H I J K L M N O P Q R S T U V W X Y Z