Guitaretab - guitar tabs
Song name
# A B C D E F G H I J K L M N O P Q R S T U V W X Y Z

Usher - Will Work For Love tab

my first tab, strum your own pattern for it. Im just giving out the chords, shouldnt be 
hard to find out where it goes =D

intro
|-12----12----12----12----12----12----12----12----12----12-----12----12-----|I
|----13----13----13----13----12----12----12----12----13----13-----13----13--|
|---------------------------------------------------------------------------|
|---------------------------------------------------------------------------|
|---------------------------------------------------------------------------|
|---------------------------------------------------------------------------|

|-15--12--15--12--15--12--15--12----------------------------------------|I
|-----------------------------------------------------------------------|
|-----------------------------------------------------------------------|
|-----------------------------------------------------------------------|
|-----------------------------------------------------------------------|
|-----------------------------------------------------------------------|


verse

C Em Am F


Prechorus
[ Tab from: http://www.guitaretab.com/u/usher/116892.html ]
|------------3----------------------------------------------------------|I
|------------3----------------------------------------------------------|
|---5--------4----------------------------------------------------------|I
|---6--------5----------------------------------------------------------|
|---6--------5----------------------------------------------------------|
|---4--------3----------------------------------------------------------|

Chorus

|-3---1----0-------1----------------------------------------------------|I
|-5---1----1-------1----------------------------------------------------|
|-5---2----2-------2----------------------------------------------------|
|-5---0----2-------3----------------------------------------------------|
|-3---0----0-------3----------------------------------------------------|
|-3----------------1----------------------------------------------------|

Bridge
        x3
   ^^^^^^^^^^^^^
|--5---3---0---3-------3------------------------------------------------|I
|--6---3---1---3-------3------------------------------------------------|
|--7---5---2---5-------4------------------------------------------------|
|--7---5---2---5-------5------------------------------------------------|
|--5---3---0---3-------5------------------------------------------------|
|--5---3---0---3-------3------------------------------------------------|
Related for Will Work For Love tab