Song name
# A B C D E F G H I J K L M N O P Q R S T U V W X Y Z

Usher - Dj Got Us Falling In Love Again chords

Highlighted       Show chord diagrams
-------------------------------------------------------------------------------
                      DJ GOT US FALLING IN LOVE AGAIN - Usher
-------------------------------------------------------------------------------
First Submitted: August 8th 2010
Last Updated: August 12th 2010

Tabbed by: Wayne S
Tuning: 1/2 step down D# G# C# F# A# D#

Capo: 0

G#m: 466444
F#: 244322
E: 022100

Scroll down to the bottom for the version with standard tuning. However, it should be noted
that this tab is optimised for the version tuned half a step down with no capo (especially 
the intro).

The intro can actually be played throughout most of the song, but it's a bit tricky to be
able to sing while playing it. You'll need to get used to the rhythm. The numbers 
in squared brackets
can replace the chords if you wish to do so.

[1] -> G#m
[2] -> F#
[3] -> First E
[4] -> Second E

Please leave any comments/ratings/corrections/suggestions.

[Intro]:

Simple chords: G#m, F#, E, E

Tabbed (plucking):

 G#m           F#      G#m  E       G#m  
      G#m

|---------------------------------------------------------------------------|
|---------4-4----------4-4----------4-4----------4-4------------------------|
|4--4--4--4-4-3--3--3--4-4-1--1--1--4-4-1--1--1--4-4------------------------|
|6--6--6--6-6-4--4--4--6-6-2--2--2--6-6-2--2--2--6-6------------------------|
|6--6--6--6-6-4--4--4--6-6-2--2--2--6-6-2--2--2--6-6------------------------|
|4--4--4------2--2--2------0--0--0------0--0--0-----------------------------|
[1]          [2]          [3]          [4]

[Simplified Intro]:

|---------------------------------------------------------------------------|
|---------------------------------------------------------------------------|
|---------8-8----------8-8----------8-8----------8-8------------------------|
|9--9--9------8--8--8------6--6--6------6--6--6-----------------------------|
|---------------------------------------------------------------------------|
|---------------------------------------------------------------------------|
[1]          [2]          [3]          [4]

[Verse 1]:

(yeah man)
G#m
  So we back in the club
F#                          E             E
Get that bodies rockin from side to side (si-side to side)
G#m
  Thank God the week is done
F#                        E             E
I feel like a zombie gone back to life (back to life)
G#m           F#                      E
Hands up, and suddenly we all got our hands up
E
No control of my body
G#m
  Ain't I seen you before?
F#                       E                       E
I think I remember those eyes, eyes, eyes, eyes

[Chorus]:

           G#m          F#                   E          E
Cause baby tonight, the DJ got us falling in love again
           G#m          F#                   E          E
Yeah, baby tonight, the DJ got us falling in love again
   G#m                         F#                       E
So dance, dance, like it's the last, last night of your life, life
              E
Gonna get you right
           G#m          F#                   E          E
Cause baby tonight, the DJ got us falling in love again

[Verse 2]:

G#m
  Keep downing drinks like this
F#                           E              E
Not tomorrow that just right now, now, now, now, now, now
G#m
  Gonna set the roof on fire
F#                            E                 E
Gonna burn this mother f**ker down, down, down, down, down, down
G#m       F#
Hands up, when the music drops
                E
We both put our hands up
E
Put your hands on my body
G#m
  Swear I seen you before
F#                       E                      E
I think I remember those eyes, eyes, eyes, eyes


[Repeat Chorus]


[Repeating Riff starting from the middle of Pitbull's bit]:
|-7-------|
|---9-----|
|-----8---|
|-------9-|
|---------|
|---------|

[Riff starting from around "Dale abre ai" (lyrics)]:

|-------7---------------------|
|-------9-11-9--11--9-7-9-7---|
|-8---8-8-------11--9---9-6---|
|---7-----------11--9---9-8-9-|
|---------------------------7-|
|---------------------------7-|

[Pitbull]:

G#m
In the cover of the music get naked baby
    F#
I'm sorry chica
                E
Better holla at Tyrone let him know how I jump through your foot loop
E
Scolla chico two can
               G#m
We're from the blocka blocka o polaca
         F#
Were the boys get loose like wacka flacka
                E
Oh no man, it's global
Was' up
Colale flacka
E
I wanna be your gyno, no not your doctor
G#m
  Dale abre ai
     F#
Papa Nicholas baby
Let me see
          E
Yo soi un Jaunito
Que stato taito
          E
Yo freco, no OK


             G#m        F#                   E          E
Cause baby tonight, the DJ got us falling in love again
             G#m        F#                   E          E
Yeah, baby tonight, the DJ got us falling in love again
   G#m                         F#                       E
So dance, dance, like it's the last, last night of your life, life
              E
Gonna get you right
             G#m        F#                   E          E
Cause baby tonight, the DJ got us falling in love again
             G#m        F#                   E          E
Yeah, baby tonight, the DJ got us falling in love again
   G#m                         F#                       E
So dance, dance, like it's the last, last night of your life, life
              E
Gonna get you right
             G#m        F#                   E          E
Cause baby tonight, the DJ got us falling in love again
Yeah, thank you DJ

---------------------------------------------------------------------------------

The way to play it with standard tuning

Tuning: Standard EADGBE

Either play it with no capo, or with capo on 3 and easier chords:

1) No Capo:
Chords:

Gm: 355333 or 10-10-12-12-11-10-|
F: 133211 or 8-8-10-10-10-8-----|
D#: 668886

2) Capo: 3
Chords:

Em: 022000
D: x00232
C: 032010

For capo on 3 version, replace chords as follows:

Gm -> Em
F -> D
D# -> C

[Intro]:
For just simple chords: Gm, F, D#, D#

Tabbed (plucking):

  Gm                F           Gm    D#       Gm   D#       Gm

e|------------10-10-------------10-10----------10-10----------10-10----------|
B|11--11--11--11-11-10--10--10--11-11-8--8--8--11-11-8--8--8--11-11----------|
G|12--12--12--12-12-10--10--10--12-12-8--8--8--12-12-8--8--8--12-12----------|
D|12--12--12--12-12-10--10--10--12-12-8--8--8--12-12-8--8--8--12-12----------|
A|10--10--10--------8---8---8---------6--6--6--------6--6--6-----------------|
E|---------------------------------------------------------------------------|
 [1]               [2]               [3]            [4]

[Simplified Intro]:

|---------------------------------------------------------------------------|
|---------------------------------------------------------------------------|
|---------7-7----------7-7----------7-7----------7-7------------------------|
|8--8--8------7--7--7------5--5--5------5--5--5-----------------------------|
|---------------------------------------------------------------------------|
|---------------------------------------------------------------------------|
[1]          [2]          [3]          [4]

[Verse 1]:

(yeah man)
Gm
  So we back in the club
F                           D#            D#
Get that bodies rockin from side to side (si-side to side)
Gm
  Thank God the week is done
F                         D#            D#
I feel like a zombie gone back to life (back to life)
Gm            F                       D#
Hands up, and suddenly we all got our hands up
D#
No control of my body
Gm
  Ain't I seen you before?
F                        D#                      D#
I think I remember those eyes, eyes, eyes, eyes

[Chorus]:

           Gm           F                    D#         D#
Cause baby tonight, the DJ got us falling in love again
           Gm           F                    D#         D#
Yeah, baby tonight, the DJ got us falling in love again
   Gm                          F                        D#
So dance, dance, like it's the last, last night of your life, life
              D#
Gonna get you right
           Gm           F                    D#         D#
Cause baby tonight, the DJ got us falling in love again

[Verse 2]:

Gm
  Keep downing drinks like this
F                            D#             D#
Not tomorrow that just right now, now, now, now, now, now
Gm
  Gonna set the roof on fire
F                             D#                D#
Gonna burn this mother f**ker down, down, down, down, down, down
Gm        F
Hands up, when the music drops
                D#
We both put our hands up
D#
Put your hands on my body
Gm
  Swear I seen you before
F                        D#                      D#
I think I remember those eyes, eyes, eyes, eyes


[Repeat Chorus]


[Repeating Riff starting from the middle of Pitbull's bit]:
|-6-------|
|---8-----|
|-----7---|
|-------8-|
|---------|
|---------|

[Riff starting from around "Dale abre ai" (lyrics)]:

|-------6---------------------|
|-------8-10-8--10--8-6-8-6---|
|-7---7-7-------10--8---8-5---|
|---6-----------10--8---8-7-8-|
|---------------------------6-|
|---------------------------6-|

[Pitbull]:

Gm
In the cover of the music get naked baby
    F
I'm sorry chica
                D#
Better holla at Tyrone let him know how I jump through your foot loop
D#
Scolla chico two can
               Gm
We're from the blocka blocka o polaca
         F
Were the boys get loose like wacka flacka
                D#
Oh no man, it's global
Was' up
Colale flacka
D#
I wanna be your gyno, no not your doctor
Gm
  Dale abre ai
     F
Papa Nicholas baby
Let me see
          D#
Yo soi un Jaunito
Que stato taito
          D#
Yo freco, no OK


             Gm         F                    D#         D#
Cause baby tonight, the DJ got us falling in love again
             Gm         F                    D#         D#
Yeah, baby tonight, the DJ got us falling in love again
   Gm                          F                        D#
So dance, dance, like it's the last, last night of your life, life
              D#
Gonna get you right
             Gm         F                    D#         D#
Cause baby tonight, the DJ got us falling in love again
             Gm         F                    D#         D#
Yeah, baby tonight, the DJ got us falling in love again
   Gm                          F                        D#
So dance, dance, like it's the last, last night of your life, life
              D#
Gonna get you right
             Gm         F                    D#         D#
Cause baby tonight, the DJ got us falling in love again
Yeah, thank you DJ
Tap to rate this tab
 
# A B C D E F G H I J K L M N O P Q R S T U V W X Y Z