Song name
# A B C D E F G H I J K L M N O P Q R S T U V W X Y Z

Usher - Dj Got Us Fallin In Love Again tab

Standard Tuning E A D G B E

---------------------------------------|
---------------------------------------|
---------------------------------------|
------8-8------8-8-------8-8-------8-8-|
9-9-9----8-8-8-----6-6-6----6-6-6------|
---------------------------------------|

---------------------------------------|
---------------------------------------|
---------------------------------------|
------8-8------8-8-------8-8-------8-8-|
9-9-9----8-8-8-----6-6-6----6-6-6------|
---------------------------------------|

Repeat until vocals begin.
Tap to rate this tab
 
# A B C D E F G H I J K L M N O P Q R S T U V W X Y Z