Song name
# A B C D E F G H I J K L M N O P Q R S T U V W X Y Z

Usher - You Make Me Wanna tab

 ****Capo 1st Fret****

 Tab is relative to the capo.

 Sorry I don't know the bridge of the song. This will give you enough to enjoy a quick jam!

 Tabs by Zak Sisak

(D):Down Stroke
(U):Up Stroke
 x :Mute
 / :Slide Down
 ~ :Vibrato

   (D) (U)(D)                (U U D D U)   (U U D D U)
e----------x------------------------------------------------------|
B---3---3--x--------3---------------------------------------------|
G---4---4--x---------0--------4-4-4-4-4-----3-3-3-3-3-------------|
D---4---4--x--4/5-------------5-5-5-5-5-----4-4-4-4-4-------------|
A---2---2--x------------5~----5-5-5-5-5-----4-4-4-4-4-------------|
E----------x--0---------------3-3-3-3-3-----2-2-2-2-2-------------|


Verse - ***8 Beat Count***
e-----------------------------------------------------------------|
B---3-3---0-0-----------------------------------------------------|
G---4-4---0-0----4-4---3-3----------------------------------------|
D---4-4---2-2----5-5---4-4----------------------------------------|
A---2-2---2-2----5-5---4-4----------------------------------------|
E---------0-0----3-3---2-2----------------------------------------|
Tap to rate this tab
# A B C D E F G H I J K L M N O P Q R S T U V W X Y Z