Song name
# A B C D E F G H I J K L M N O P Q R S T U V W X Y Z

Usher - My Boo tab

My Boo - Usher
(Passion ver.)

e|-----.-------------.---------.---------|
B|-6-6-.-6-----5h6-5-.--5----3-.-----5---|
G|-5-5-.-5-----5---5-.--5----3-.-----6---|
D|-7-7-.-7---7-------.--5----3-.-----5---|
A|-5-5-.---5---------.--7---5--.----7----|
E|-----.-------------.-5--3----.-3-5---5-|

e|-----5h6p5----------.---------.--------------5-|
B|----6-----h6--5h6-5-.--5----3-.--6--5-5--5---6-|
G|---5----------5---5-.--5----3-.--7--6-6--6---5-|
D|--7-----------7-----.--5----3-.--6--5-5--5---7-|
A|-5----------5-------.--7---5--.--8--7-7--7---5-|
E|--------------------.-5--3----.-6---5-5--5-----|

the .'s are taps ... 

this tab sounds so nice =)

enjoy!!
Tap to rate this tab
 
# A B C D E F G H I J K L M N O P Q R S T U V W X Y Z