Song name
# A B C D E F G H I J K L M N O P Q R S T U V W X Y Z

Usher - Nice And Slow tab

-------------------------------------------------------------------------------
			     Nice and Slow - Usher
-------------------------------------------------------------------------------
Tabbed by:The4LMNTS
email: likehoy88@yahoo.com

Tuning:standard E A D G B e
                           (Dbmaj7)
e|-4h6--4h6-----4h6--------4-4-4-4----------------------------|
B|-------------------------6-6-6-6----------------------------|
G|-------------------------5-5-5-5----------------------------|
D|-------------------------6-6-6-6----------------------------|
A|-------------------------4-4-4-4----------------------------|
E|------------------------------------------------------------|
Tap to rate this tab
# A B C D E F G H I J K L M N O P Q R S T U V W X Y Z