Song name
# A B C D E F G H I J K L M N O P Q R S T U V W X Y Z

Usmc - Marine Corps Hyme tab

---------------------------------------------------------------------
---------------------------------------------------------------------
---------------------------------------------------------------------
---------------------------------------2-2-2-2-r-4-2-----2-2---------
------2-2-2-2-r-4-2-----2-2-------2-4---------------2-4-----4-2-0----
--2-4---------------2-4-----4-2-0------------------------------------

---------------------------------------------------------------------
---------------------------------------------------------------------
-2-----------2-4-2-----2-2-------------------------------------------
---4-2---2-4-------2-4-----4-2-0-------------------------------------
-------4-----------------------------2-2-2-2-r-4-2-----2-2-----------
---------------------------------2-4---------------2-4-----4-2-0-----


you play that for the rest of the hyme

r=let ring
Tap to rate this tab
# A B C D E F G H I J K L M N O P Q R S T U V W X Y Z