Song name
# A B C D E F G H I J K L M N O P Q R S T U V W X Y Z

Utah Phillips - Weepy Doesnt Know tab

-------------------------------------------------------------------------------
                             WEEPY DOESN'T KNOW - Utah Phillips
-------------------------------------------------------------------------------
Tabbed by: Lone Piner

Tuning: Standard

I use Travis fingerpicking staying close to the DGBe strings. I tabbed out the intro but 
this video (http://www.youtube.com/watch?v=PYe1phTCw7o) helped me with the chords some.

Intro

e|----0---------------------------0----------------------------------------3-----|
B|--3---3-1-0-3-----------------3---3-1-0-3----------------------------------3---|
G|----------------0---2---4-------------------2---4-3-2----0---0-2-4-0---------4-|
D|------------------0---0---0-------------------0------------0---------0---------|
A|-------------------------------------------------------------------------------|
E|-------------------------------------------------------------------------------|

e|------3----------------3--3----------------------------------------------------|
B|----3-----3---------------0----------------------------------------------------|
G|--4---------4-0-2-0--0----0----------------------------------------------------|
D|--------------------------0----------------------------------------------------|
A|--------------------------2----------------------------------------------------|
E|--------------------------3----------------------------------------------------|

G
Why's everybody laughing?
C      D       G
Weepy doesn't know.
G
He just stands there grinning,
  D          D7
I guess he's kinda slow;
     G
But Weepy don't get sore,
      C
Seems like he asks for more
G                       C              G
Look at all the broken dishes on the floor.

Weepy can't do nothin',
There's nothin' he can do.
Sometimes he takes all morning
To find his other shoe.
Hey, Goddamn it, Sid,
Lay off the poor dumb kid!
Come on Weep, I'll show you where it's hid.

He's so damned good natured,
Just laughs and takes his lumps.
You never seen him angry
'Cept when he's croaking gumps.
But that's no big surprise,
It's right there in his eyes;
Looks like Weepy's found him something more his size.

Just like all these dishes
There's something in him broke;
Don't guess we mean to hurt him
When we play our little joke.
Still the social workers say
He might have to go away,
Well, you ask him - I bet he'd like to stay.

Why's everybody laughing?
Weepy doesn't know.
He just stands there grinning,
I guess he's kinda slow;
But Weepy don't get sore,
Seems like he asks for more -
Look at all the broken dishes on the floor.
Tap to rate this tab
# A B C D E F G H I J K L M N O P Q R S T U V W X Y Z