Song name
# A B C D E F G H I J K L M N O P Q R S T U V W X Y Z

Utro - Portret tab

Utro - Portret
From the album "Utro" (self-released 2010).

https://www.facebook.com/ytrorty

Tabbed by Isaac Murguia, March 2014.
Originally uploaded to Ultimate-Guitar.com
Contact: www.youtube.com/user/Goadiroth

\/ = triplets or play fast

CHORUS A:
e|-7--7-----7--7----|
B|-8--8-----8--8----|
G|-9--9-----9--9----|
D|-9--9-----9--9----|
A|------------------|
E|------------------| [x2]

CHORUS B:
e|-777-7-77-7-7777-10-10-10--10-10--10-10-10-10-10-10-10-10-10-10-|
B|-888-8-88-8-8888-11-11-11--11-11--11-11-11-11-11-11-11-11-11-11-|
G|-999-9-99-9-9999-12-12-12--12-12--12-12-12-12-12-12-12-12-12-12-|
D|-999-9-99-9-9999-12-12-12--12-12--12-12-12-12-12-12-12-12-12-12-|
A|-\-/-------------\------/---------------------------------------|
E|----------------------------------------------------------------| [x2]

CHORUS C: "ooooohhhh"
e|-777-77-777-7-7777-7-10--10-10--10-10-10--10-10-10-10-10-10-|
B|-888-88-888-8-8888-8-11--11-11--11-11-11--11-11-11-11-11-11-|
G|-999-99-999-9-9999-9-12--12-12--12-12-12--12-12-12-12-12-12-|
D|-\-/--------------------------------------------------------|
A|------------------------------------------------------------|
E|------------------------------------------------------------|

e|-777-77-7777777777-7-10--10-12--12-12--14-14-14--12-12-12-12-10-10-10-|
B|-888-88-8888888888-8-11--11-11--11-11--11-11-11--11-11-11-11-11-11-11-|
G|-999-99-9999999999-9-12--12-12--12-12--12-12-12--12-12-12-12-12-12-12-|
D|-\-/---------------------------------------------\------------------/-|
A|----------------------------------------------------------------------|
E|----------------------------------------------------------------------|

e|-7-77-77-7-7777-7-10-10-10-10--10-10--10-10-10-10-10--12-12-12-12-10-10-10-|
B|-8-88-88-8-8888-8-11-11-11-11--11-11--11-11-11-11-11--11-11-11-11-11-11-11-|
G|-9-99-99-9-9999-9-12-12-12-12--12-12--12-12-12-12-12--12-12-12-12-12-12-12-|
D|--------------------------------------\------/--------\------------------/-|
A|---------------------------------------------------------------------------|
E|---------------------------------------------------------------------------|

e|-7-77-777-7-7777-10-10-10--10-10--10-10--10-10-14-14-14--12-12-12-12-10-10-10-|
B|-8-88-888-8-8888-11-11-11--11-11--11-11--11-11-11-11-11--11-11-11-11-11-11-11-|
G|-9-99-999-9-9999-12-12-12--12-12--12-12--12-12-12-12-12--12-12-12-12-12-12-12-|
D|-----------------\------/----------------\------/--------\------------------/-|
A|------------------------------------------------------------------------------|
E|------------------------------------------------------------------------------|

OUTRO:
e|-7-77--7777-7777-77-10-10-10-10-10-10-10-10-10-10-10-10-10-10-10-|
B|-8-88--8888-8888-88-11-11-11-11-11-11-11-11-11-11-11-11-11-11-11-|
G|-9-99--9999-9999-99-12-12-12-12-12-12-12-12-12-12-12-12-12-12-12-|
D|-----------------------------------------------------------------|
A|-----------------------------------------------------------------|
E|-----------------------------------------------------------------|
                                                           [x4]
e|-777-77-77-7777777-10-10-10-10-10-10-10-10-10-10-10-|-10-10-10-10-|-10-10-7--|
B|-888-88-88-8888888-11-11-11-11-11-11-11-11-11-11-11-|-11-11-11-11-|-11-11-8--|
G|-999-99-99-9999999-12-12-12-12-12-12-12-12-12-12-12-|-12-12-12-12-|-12-12-9--|
D|-\-/---------------\------/-------\---------/-------|-\---------/-|-\-----/--|
A|----------------------------------------------------|-------------|----------|
E|----------------------------------------------------|-------------|----------|

End. Please rate!
Tap to rate this tab
# A B C D E F G H I J K L M N O P Q R S T U V W X Y Z