Guitaretab - guitar tabs
Song name
# A B C D E F G H I J K L M N O P Q R S T U V W X Y Z

Uverworld - D-technolife tab

For the strum part, i'm not sure how many times you'll have to do it so you'll
have to listen to the song.

|4-2-0-4-2-0-4-4-4-4-2-0--0-2-0-4------2-0---0-2-0-------4-2-0----4-2-0---0|
|-----------------------4---------4-4-4-------4-----4-4-4---------------4--|
|--------------------------------------------------------------------------|
|--------------------------------------------------------------------------|
|--------------------------------------------------------------------------|
|--------------------------------------------------------------------------|

|--------------------4-----------------|
|------5-4-5-7-5-4-5---5-7-5-4-5-7-5---|
|---6----------------------------------| x2
|--------------------------------------|
|--------------------------------------|
|--------------------------------------|

strum

|----------4----0----4-------4---2---|		
|----------5----0----4-------5---2---|		
|---2------6----1----4---2---6---3---|		
|---2------6----2----2---2---6---4---|		
|---0------4----2----2---0---4---4---|		
|---------------0----------------2---|		
[ Tab from: http://www.guitaretab.com/u/uverworld/91196.html ]
stop strum
|---4-------------------4---------4--4--4---|
|---4-------------------4---------4--4--4---|
|---5-------------------5---------5--5--5---|
|---6-------------------6---------6--6--6---|
|---6-------------------6---------6--6--6---|
|---4-------------------4---------4--4--4---|


|4-2-0--4-2-0--4-4-4-4-2-0-----0-2-0-4--4-4-4-2-0---4-4-2-0-0-0-0--0-2-2-0-|
|---------------------------4---------------------4--------------4---------|
|--------------------------------------------------------------------------|
|--------------------------------------------------------------------------|
|--------------------------------------------------------------------------|
|--------------------------------------------------------------------------|

|4-4-4-4-4-2-0---4-2-0-4-4-4-4-2-0-----0-2-0-4-------2-0---0-2-0----4-2-0--|
|--------------4--------------------4----------4-4-4-----4--------4-------4|
|--------------------------------------------------------------------------|
|--------------------------------------------------------------------------|
|--------------------------------------------------------------------------|
|--------------------------------------------------------------------------|

|---4-2-0---0|
|---------4--|
|------------|
|------------|
|------------|
|------------|

|--------------------4-----------------|
|------5-4-5-7-5-4-5---5-7-5-4-5-7-5---|
|---6----------------------------------| x4
|--------------------------------------|
|--------------------------------------|
|--------------------------------------|


|--------|
|--------|
|---2----|
|---2----|
|---0----|
|--------|
Related for D-technolife tab
Advertisement will be closed in 10 seconds