Song name
# A B C D E F G H I J K L M N O P Q R S T U V W X Y Z

V Mob - Riping Scars tab

INFO: http://home.fuse.net/vmob/

TITULO:  RIPING SCARS
   
    PRESENTADO POR: V-MOB
   
    ALBUM:EQUILIBRIUM

    TABLATURA HECHA POR EDUARDO ULISES HERNANDEZ

    E-MAIL:  BENIS_01@LATINMAIL.COM
  
    ESTE ES EL REQUINTO PRINCIPAL DE TODA LA CANCION, ESTOY TRABAJANDO EN LO DEMAS 

   TUNING:   DADGBE

  INTRO
 E|------------------------------------------------|
 B|------------------------------------------------|
 G|------------------------------------------------|
 D|-------10------------10-----------10------------|
 A|------9------------9-------------9--------------|
 D|-----9----------9---------------9---------------|

 E|------------------------------------------------|
 B|------------------------------------------------|
 G|------------------------------------------------|
 D|----------10------10-----------------10---------|
 A|--------9--------9-----------------9------------|
 D|-----9----------9---------------9---------------|

 E|------------------------------------------------|
 B|------------------------------------------------|
 G|------------------------------------------------|
 D|-------10------------10-----------10------------|
 A|------9------------9-------------9--------------|
 D|-----9----------9---------------9---------------|

 E|------------------------------------------------|
 B|------------------------------------------------|
 G|------------------------------------------------|
 D|----------10------10-----------------10---------|
 A|--------9--------9-----------------9------------|
 D|-----9----------9---------------9---------------|

 E|------------------------------------------------|
 B|------------------------------------------------|
 G|------------------------------------------------|
 D|-------10------------10-----------10------------|
 A|------9------------9-------------9--------------|
 D|-----9----------9---------------9---------------|

 E|------------------------------------------------|
 B|------------------------------------------------|
 G|------------------------------------------------|
 D|----------10-----9-9------9---------------------|
 A|--------9------------10-9---10------------------|
 D|-----9------------------------------------------|

 E|------------------------------------------------|
 B|------------------------------------------------|
 G|------------------------------------------------|
 D|-----------------9-9------9---------------------| X  8  
 A|---------------------10-9---10------------------|
 D|------------------------------------------------|

  PARA: MFHC
Tap to rate this tab
# A B C D E F G H I J K L M N O P Q R S T U V W X Y Z