Song name
# A B C D E F G H I J K L M N O P Q R S T U V W X Y Z

V Shape Mind - Taste Of Vinegar tab

Help us improve GuitareTab! Take a short survey!
V Shape Mind's
Taste Of Vinegar


    Intro and Main Riff

e|-----------------------|
B|-----------------------|
G|--------4-----4-2-2-2--|
D|4-4-2-1-4-4-2-4-2-2-2--|
A|4-4-2-1-2-4-2-2-0-0-0--|
D|4-4-2-1---4-2----------|


        Verse
E|-5h6p5-x-x-5h6p5h6p5h6p5-xx--|
B|-5h6p5-x-x-5h6p5h6p5h6p5-xx--|
G|-----------------------------|
D|-----------------------------|
A|-----------------------------|
D|-----------------------------|

pre-chorus part.
slide down from somewhere

E|---------------|
B|---------------|  Repeat this part twice
G|---------------|
D|-\2-2-2-2h3p2--|
A|-\2-2-2-2h3p2--|
D|-\2-2-2-2h3p2--|
Related for Taste Of Vinegar tab