Song name
# A B C D E F G H I J K L M N O P Q R S T U V W X Y Z

V8 Wankers - Speed Kills tab

Main riff for whole song except for interlude (In one part of the song just let the
ring out)

e-------------------------------------------------------|
b-------------------------------------------------------|
g-4-4-4---4--4-7-7-7---7-7-7-2-2-2---2--2---------------|
d-4-4-4---4--4-7-7-7---7-7-7-2-2-2---2--2-5-5-5---5-5-5-|
a-2-2-2---2--2-5-5-5---5-5-5-0-0-0---0--0-5-5-5---5-5-5-|
e-----------------------------------------3-3-3---3-3-3-|


Melody over Intro/Refrain

e-------------------------------|
b-------------------------------|
g-------------------------------|
d-------------------------------|
a-5--2--0-2--2------5--2--0-2---|
e-----------------------------3-|


Interlude

e-----|
b-----|
g-4-4-|
d-4-4-|      for several times
a-2-2-|
e-----|
Tap to rate this tab
 
# A B C D E F G H I J K L M N O P Q R S T U V W X Y Z