Song name
# A B C D E F G H I J K L M N O P Q R S T U V W X Y Z

Vader - Storm Of Stress tab

Band: Vader
Album: Future of the Past
Song: Storm of Stress
by vaderfan
*** ORIGINALLY BY "DimeBolt"
this is all so far...


Tune down one step (D,G,C,F,A,D)

1||-----------------|-----------------||----------------|----------------||
2||-----------------|-----------------||----------------|----------------||
3||-----------------|-----------------||----------------|----------------||
4||-----4-------4---|-----4-------4---||----------------|--------5-------||
5||-3---2---3---2---|-3---2---3---2---||-3--------------|--------3--4--5-||
6||-1-------1-------|-1-------1-------||-1--------------|-----------2--3-||


1||-----------------|-----------------||-----------------|-----------------||
2||-----------------|-----------------||-----------------|-----------------||
3||-----------------|-----------------||-----------------|-----------------||
4||-----------------|---------5-------||-----------------|-----------------||
5||-----------------|---------3--4--5-||-4-3-----4-5-----|-5-6-----6-7-----||
6||-1111110-1111110-|-1111110----2--3-||-2-1---0-2-3---0-|-3-4---0-4-5---0-||
Tap to rate this tab
# A B C D E F G H I J K L M N O P Q R S T U V W X Y Z