Guitaretab - guitar tabs
Song name
# A B C D E F G H I J K L M N O P Q R S T U V W X Y Z

Vader - Distant Dream tab

Band: Vader
Album: Black to the Blind
Song: Distant Dream
by vaderfan
*** ORIGINALLY BY "CARNAL"e-----------------------------------------------------------------------------------------|
B-----------------------------------------------------------------------------------------|
G-----------------------------------------------------------------------------------------|
D-----------------------------------------------------------------------------------------|
A------44433666--44433----44433666------------44433666--44433----44433666--4443--6--6-7-7-|
E--5555--------55-----5555--------5544477-5555--------55-----5555--------55----5-4--4-5-5-|

e-------------------------------------------|
B-------------------------------------------|
G-------------------------------------------|
D-----------------------------------5-5-5-5-|
A-----5~6----333344466---5~6----44443-3-3-3-|
E--444---5555---------444---5555------------|

 Fig.1
e-----------------------------------------|
B-----------------------------------------|
G-----------------------------------------|
D-----------------------------------------|
A------44433666--44433----44433666--44433-|
E--5555--------55-----5555--------55------|
 Oh, blessed be the Grand Watchers
 Who are not from Race of Man
 But from beyond the times of the Gods

e-------------------------------------------|
B-------------------------------------------|
G-------------------------------------------|
D-------------------------------------------|
A-----5~6----333344466---5~6----44443333----|
E--444---5555---------444---5555------------|
 Lurking forever about the barriers
 Thou who are One in Three and Three in One

 I gitara:            II gitara:
e------------------| e----------------------|
B------------------| B----------------------|
G------------------| G----------------------|
D------------------| D----------------------|
A--7-7-7-7-7-7-7->-| A----------4~6---------|
E--5-5-5-5-5-5-5->-| E--55555555---55555555-|

e-------------------------------------------|
B-------------------------------------------|
G-------------------------------------------|
D-------------------------------------------|
A-----5~6----333344466---5~6----4-2---------|
E--444---5555---------444---5555------------|

 Fig.2
e-----------------------------------------|
B-----------------------------------------|
G-----------------------------------------|
D-----------------------------------------|
A------44433666--44433----44433666--44433-|
E--5555--------55-----5555--------55------|
 With the names that set a soul ablaze
     KUA MASS SSARATU-
 Thy Sword of Flames
 I have never heard your voices so close

e-------------------------------------------|
B-------------------------------------------|
G-------------------------------------------|
D-------------------------------------------|
A-----5~6----333344466---5~6----44443333----|
E--444---5555---------444---5555------------|
 Unknowable, unspeakable chants
 Turn into the billion pieces
 Enslaved in crypts upon the stars
[ Tab from: http://www.guitaretab.com/v/vader/45189.html ]
 I gitara:                           II gitara:
e---------------------------------| e-------------------------------------------|
B---------------------------------| B-------------------------------------------|
G---------------------------------| G-------------------------------------------|
D---------------------------------| D-------------------------------------------|
A--7-7-7-7-7-7-7-7-7-7-7-7-7-7-7-9| A----------4~6--------4~6--------4~6----7-9-|
E--5-5-5-5-5-5-5-5-5-5-5-5-5-5-5-7| E--55555555---55555555---55555555---55555-7-|

 Obie gitary (z tym,że druga wchodzi trochę później co zresztą słychać
  w nagraniu):
e---------------------------------------------------------------------|
B---------------------------------------------------------------------|
G---------------------------------------------------------------------|
D---------------------------------------------------------------------|
A--(2-2-2-2-2-2-2-2-2-2-2-2)m-8m/5m/7m-(2-2-2-2-2-2-2-2-2-2-2-2-2)m-3-|
E--(0-0-0-0-0-0-0-0-0-0-0-0)m-6m/3m/5m-(0-0-0-0-0-0-0-0-0-0-0-0-0)m-1-|

 3x
e----------------------------|
B----------------------------|
G----------------------------|
D----------------------------|
A--(2-2-2-2-2-2)m-8/77/6/5/6-|
E--(0-0-0-0-0-0)m-6/55/4/3/4-|
 Rites not to be spoken
 Harbingers of chasmal light
 Forever kept alive

e-----------------------|----------------------------|---------------------------|
B-----------------------|----------------------------|---------------------------|
G-----------------------|----------------------------|---------------------------|
D-----------------------|----------------------------|---------------------------|
A--(2-2-2-2-2-2)m-8/7/3-|--(2-2-2-2-2-2)m-8/77/6/5/6-|-(2-2-2-2-2-2)m-8/77/6/5/6-|
E--(0-0-0-0-0-0)m-6/5/1-|--(0-0-0-0-0-0)m-6/55/4/3/4-|-(0-0-0-0-0-0)m-6/55/4/3/4-|
 Upon the wizard's seal  The Conjuration of the fire  I call thee fierce Dog here


e----------------------------|----------------|
B----------------------------|----------------|
G----------------------------|----------------|
D----------------------------|----------------|
A--(2-2-2-2-2-2)m-8/77/6/5/6-|-(2-2-2-2-2-2)m-|
E--(0-0-0-0-0-0)m-6/55/4/3/4-|-(0-0-0-0-0-0)m-|
   Before me SHTAH!             Appear!

 1 gitara ( w wersji z "Black..." motyw ten zagrany jest szybciej ):
e----------|
B----------|
G----------|
D----------|
A----2---3-|
E--1---2---|

 Fig.3
e-------------------------------------------|
B-------------------------------------------|
G-------------------------------------------|
D----------------------------------5-5-5-5--|
A-----5~6----333344466---5~6----4443-3-3-3--|
E--444---5555---------444---5555------------|


e-----------------------------------------|
B-----------------------------------------|
G-----------------------------------------|
D-----------------------------------------|
A------44433666--44433----44433666--44433-|
E--5555--------55-----5555--------55------|
 Carven signs engraved upon the bowl
  BARRA MASS SSARATU BARRA!
 Behold the worthless formula

e-------------------------------------------|
B-------------------------------------------|
G-------------------------------------------|
D-------------------------------------------|
A-----5~6----333344466---5~6----44443333--6-|
E--444---5555---------444---5555----------4-|

 Seeking ever to hold the Ancient Powers
 Now devoured is thy mind
 Such are laws of the grey stone star...
Related for Distant Dream tab
Advertisement will be closed in 10 seconds