Song name
# A B C D E F G H I J K L M N O P Q R S T U V W X Y Z

Vaginal Jesus - Wrapped In Chains tab

Vaginal Jesus
Affirmative Apartheid
Wrapped in Chains

Copyright (c) Unholy Records 2002
Version 1.0 - 21.6.2006

.  - palm mute           /  - slide up to
\  - slide down to       ~  - vibrato
h  - hammer on           b  - Bend
p  - pull off            Suffixes for bend
t  - tap                 f  - full bend    h - half bend
ph - pinched harmonic    q  - quarter bend t - tap bend
*  - see comment         ^  - Hold bend    r release bend
x  - Stuccatto           ~  - vibrato bend
,  - slight palm mute    () - ghost note, sustained note
"  - tremolo note        <> - Trill

Riff A (fast)
|-----------------|
|-----------------|
|-----------------|
|-----------------|
|-4-5-6---6---6-8-|
|-2-3-4-0-4-0-4-6-|

Riff B
|-----------------------------------------------------------------|
|-----------------------------------------------------------------|
|-3---------------------------------------------------------------|
|-1---------------------------------------------------------------|
|---------5-------4-4-4-4-4-4-4-4-4-4-4-4-4-4-4-4-4-4-4-4-4-4-4-4-|
|---------3-------2-2-2-2-2-2-2-2-2-2-2-2-2-2-2-2-2-2-2-2-2-2-2-2-|
                  . . . . . . . . . . . . . . . . . . . . . . . .

 -----------------------------------------------------------------|
 -----------------------------------------------------------------|
 -4----------------------------------------Dont play on 2nd times-|
 -2-------------------------------------------------*************-|
 ---------4-------3-3-3-3-3-3-3-3-3-3-3-3-3-3-3-3-3-3-3-3-3-3-3-3-|
 ---------2-------1-1-1-1-1-1-1-1-1-1-1-1-1-1-1-1-1-1-1-1-1-1-1-1-|
                  . . . . . . . . . . . . . . . . . . . . . . . .
Structure

Riff A x8
Riff B x2
Riff A x8
Riff B x2


END
Tap to rate this tab
 
# A B C D E F G H I J K L M N O P Q R S T U V W X Y Z