Song name
# A B C D E F G H I J K L M N O P Q R S T U V W X Y Z

Vaginal Jesus - Run Nigger Run tab

VAGINAL JESUS - RUN NIGGER, NIGGER RUN TAB
(BY EAR)

Tune 1/2 step down

INTRO
eb|------------------------------------------------------------------------|
Bb|------------------------------------------------------------------------|
Gb|------------------------------------------------------------------------|
Db|---3---------3---------6-5----3---------3---------6-5-------------------|
Ab|---1---------1---------4-3----1---------1---------4-3-------------------|
Eb|-----0-1-2-1---0-1-2-1----------0-1-2-1---0-1-2-1-----------------------|
        P M P M   P M P M          P M P M   P M P M
CTND
eb|------------------------------------------------------------------------|
Bb|------------------------------------------------------------------------|
Gb|-------------------------------------------------HOLD-------------------|
Db|---3---------3---------6-5----3---------3---------6---------------------|
Ab|---1---------1---------4-3----1---------1---------4---------------------|
Eb|-----0-1-2-1---0-1-2-1----------0-1-2-1---0-1-2-1-----------------------|
        P M P M   P M P M          P M P M   P M P M


VERSE
eb|------------------------------------------------------------------------|
Bb|------------------------------------------------------------------------|
Gb|------------------------------------------------------------------------|
Db|------------------------------------------------------------------------|
Ab|---444444-6677887---444444-55555-4-----444444-6677887---444444-55555-4--|
Eb|---222222-4455665---222222-33333-2-----222222-4455665---222222-33333-2--|


CHORUS
eb|------------------------------------------------------------------------|
Bb|------------------------------------------------------------------------|
Gb|------------------------------------------------------------------------|
Db|---3---------3---------6-5----3---------3---------6-5-------------------|
Ab|---1---------1---------4-3----1---------1---------4-3-------------------|
Eb|-----0-1-2-1---0-1-2-1----------0-1-2-1---0-1-2-1-----------------------|
        P M P M   P M P M          P M P M   P M P M
CTND
eb|------------------------------------------------------------------------|
Bb|------------------------------------------------------------------------|
Gb|-------------------------------------------------HOLD-------------------|
Db|---3---------3---------6-5----3---------3---------6---------------------|
Ab|---1---------1---------4-3----1---------1---------4---------------------|
Eb|-----0-1-2-1---0-1-2-1----------0-1-2-1---0-1-2-1-----------------------|
        P M P M   P M P M          P M P M   P M P M


2ND VERSE
eb|------------------------------------------------------------------------|
Bb|------------------------------------------------------------------------|
Gb|------------------------------------------------------------------------|
Db|------------------------------------------------------------------------|
Ab|---444444-6677887---444444-55555-4-----444444-6677887---444444-55555-4--|
Eb|---222222-4455665---222222-33333-2-----222222-4455665---222222-33333-2--|



2ND CHORUS
eb|------------------------------------------------------------------------|
Bb|------------------------------------------------------------------------|
Gb|------------------------------------------------------------------------|
Db|---3---------3---------6-5----3---------3---------6-5-------------------|
Ab|---1---------1---------4-3----1---------1---------4-3-------------------|
Eb|-----0-1-2-1---0-1-2-1----------0-1-2-1---0-1-2-1-----------------------|
        P M P M   P M P M          P M P M   P M P M
CTND
eb|------------------------------------------------------------------------|
Bb|------------------------------------------------------------------------|
Gb|-------------------------------------------------HOLD-------------------|
Db|---3---------3---------6-5----3---------3---------6--------E-N-D--------|
Ab|---1---------1---------4-3----1---------1---------4---------------------|
Eb|-----0-1-2-1---0-1-2-1----------0-1-2-1---0-1-2-1-----------------------|
        P M P M   P M P M          P M P M   P M P M


Feel free to leave comments or corrections
Tap to rate this tab
 
# A B C D E F G H I J K L M N O P Q R S T U V W X Y Z