Vaginal Jesus - Niggers Are No Friends Of Mine tab

Vaginal Jesus             
Niggers are no friends of mine 

Tuning: 1/2 Step Down

Verse 4x
eb|-----------------------------------------------------------------------|
Bb|-----------------------------------------------------------------------|
Gb|-----------------------------------------------------------------------|
Db|----------------6-6-6-6------------------------------------------------|
Ab|----5-5-5-5-(5)-4-4-4-4------------------------------------------------|
Eb|----3-3-3-3-(3)---------2222p1-2222p1-2222p1-2222----------------------|
                           PMPMPM PMPMPM PMPMPM PMPM


CHORUS 
eb|-----------------------------------------------------------------------|
Bb|-----------------------------------------------------------------------|
Gb|-----------------------------------------------------------------------|
Db|-----------------------------------------------------------------------|
Ab|----6-6-6-6-(6)-5-5-5-5------------------------------------------------|
Eb|----4-4-4-4-(4)-3-3-3-3-2222p1-2222p1-2222p1-2222----------------------|
                           PMPMPM PMPMPM PMPMPM PMPM

eb|-----------------------------------------------------------------------|
Bb|-----------------------------------------------------------------------|
Gb|-----------------------------------------------------------------------|
Db|-----------------------------------------------------------------------|
Ab|----6-6-6-6-(6)-5-5-5-5------------------------------------------------|
Eb|----4-4-4-4-(4)-3-3-3-3-2222p1-2222p1-2222p1-2222----------------------|
                           PMPMPM PMPMPM PMPMPM PMPM


eb|----4-----------3------------------------------------------------------|
Bb|----7b----------6b~~---------------------------------------------------|
Gb|---FULL--------FULL----------------------------------------------------|
Db|---BEND--------BEND----------------------------------------------------|
Ab|-----------------------------------------------------------------------|
Eb|------------------------2222p1-2222p1-2222p1-2222----------------------|
                           PMPMPM PMPMPM PMPMPM PMPM

eb|----4-----------3------------------------------------------------------|
Bb|----7b----------6b~~---------------------------------------------------|
Gb|---FULL--------FULL----------------------------------------------------|
Db|---BEND--------BEND----------------------------------------------------|
Ab|-----------------------------------------------------------------------|
Eb|------------------------2222p1-2222p1-2222p1-2222----------------------|
                           PMPMPM PMPMPM PMPMPM PMPM

  Outro
eb|-----------------------------------------------------------------------|
Bb|-----------------------------------------------------------------------|
Gb|----FRIENDS------------------------------------------------------------|
Db|--NO-------OF-MINE!!---------------------------------------------------|
Ab|---5---5---6---4-------------------------------------------------------|
Eb|---3---3---4---2-------------------------------------------------------|
     PM  PM  PM  PM
Tap to rate this tab
 
# A B C D E F G H I J K L M N O P Q R S T U V W X Y Z