Song name
# A B C D E F G H I J K L M N O P Q R S T U V W X Y Z

Vagrant - Grudge tab

(Bass Intro)

Bridge
|----------------------------------------------------------------------------|
|----------------------------------------------------------------------------|
|----------------------------------------------------------------------------|
|----------------------------------------------------------------------------|
|2-22-2-22-------------------------------------------------------------------|
|0-00-0-00-------------------------------------------------------------------|

(Bass Breakdown)

Main Riff
|----------------------------------------------------------------------------|
|----------------------------------------------------------------------------|
|----------------------------------------------------------------------------|
|---------10-10-10-10-10-----------------------------------------------------|
|3-2-2-3--8--8--8--8--8--3-2-2-3-6-6-6-66------------------------------------|
|1-0-0-1-----------------1-0-0-1-4-4-4-44------------------------------------|
Tap to rate this tab
# A B C D E F G H I J K L M N O P Q R S T U V W X Y Z