Song name
# A B C D E F G H I J K L M N O P Q R S T U V W X Y Z

Vagrant - Numb tab

Intro
|----------------------------------------------------------------------------|
|----------------------------------------------------------------------------|
|----------------------------------------------------------------------------|
|----------------------------------------------------------------------------|
|3-3333-3-3-3-4-4-7-7-7-3-3333-3-3-3-6-6-4-4-4-x4----------------------------|
|1-1111-1-1-1-2-2-5-5-5-1-1111-1-1-1-4-4-2-2-2-------------------------------|
   ****                   ****
   ^(palm mutes really fast)^

Breakdown
|----------------------------------------------------------------------------|
|----------------------------------------------------------------------------|
|----------------------------------------------------------------------------|
|----------------------------------------------------------------------------|
|3-3-3-3-4-4-7-7-7-3-3-3-3-6-6-4-4-4-x4--------------------------------------|
|1-1-1-1-2-2-5-5-5-1-1-1-1-4-4-2-2-2-----------------------------------------|
 * *         * *   * *         * *
Bridge
|----------------------------------------------------------------------------|
|----------------------------------------------------------------------------|
|----------------------------------------------------------------------------|
|----------------------------------------------------------------------------|
|6-4-3-7-6-4-6-4-3-7-6-4-3---------------------------------------------------|
|4-2-1-5-4-2-4-2-1-5-4-2-1---------------------------------------------------|

(Bass slide)

Breakdown (slower tempo)
|----------------------------------------------------------------------------|
|----------------------------------------------------------------------------|
|----------------------------------------------------------------------------|
|----------------------------------------------------------------------------|
|3-3-3-3-4-4-7-7-7-3-3-3-3-6-6-4-4-4-x4--------------------------------------|
|1-1-1-1-2-2-5-5-5-1-1-1-1-4-4-2-2-2-----------------------------------------|
 * *         * *   * *         * *
Tap to rate this tab
# A B C D E F G H I J K L M N O P Q R S T U V W X Y Z