Song name
# A B C D E F G H I J K L M N O P Q R S T U V W X Y Z

Vagrant - Hopes tab

Intro
|----------------------------------------------------------------------------|
|----------------------------------------------------------------------------|
|----------------------------------------------------------------------------|
|----------------------------------------------------------------------------|
|3-222-2-22-3-2-3-666-x4--3-222-2---3-2-3-666-x4-----------------------------|
|1-000-0-00-1-0-1-444-----1-000-0---1-0-1-444--------------------------------|
   ***   **                 *** ^
                                ^(let rest)
Bridge
|----------------------------------------------------------------------------|
|----------------------------------------------------------------------------|
|----------------------------------------------------------------------------|
|----------------------------------------------------------------------------|
|2-222-2-22-x4---------------------------------------------------------------|
|0-000-0-00------------------------------------------------------------------|
   ***   **

Breakdown
|----------------------------------------------------------------------------|
|----------------------------------------------------------------------------|
|----------------------------------------------------------------------------|
|----------------------------------------------------------------------------|
|5-222-2-22-5-3-2-666-x4--5-222-2---5-2-666----------------------------------|
|3-000-0-00-3-1-0-444-----3-000-0---3-0-444----------------------------------|
   ***   **                 *** ^
                                ^(let ring)
Outro
|-----------------------------------------------------------------------------|
|-----------------------------------------------------------------------------|
|-----------------------------------------------------------------------------|
|-----------------------------------------------------------------------------|
|5-222-2-22-5-3-2-666-x4--5-555-5-55-5-6-5-3-5-3-2----------------------------|
|3-000-0-00-3-1-0-444-----3-333-3-33-3-4-3-1-3-1-0----------------------------|
   ***   **                 ***   **
  ^(slower tempo)^
Tap to rate this tab
# A B C D E F G H I J K L M N O P Q R S T U V W X Y Z